Oops, an error
Loading. Please wait.

Light It Up tab

version 1
version 1

Whole song

Interactive

3,512 views 3 this week
5 commentsread comments
1 2 3 4 5
x 3
add to favorites
×
Save as Personal and add changes to this tab that will be seen only by you. Learn more ›
×
You can save this tab as Personal to edit and correct it or add notes. All changes will be seen only by you. Learn more »
launch autoscroll
font size
0
reset
how to read this tab
guitar tuner
edit
Autoscroll
slow
fast
+/-
esc
set tempo
stop
Tabbed it on acoustic same on electric on most part. parts of the other tabs was 
right or really close. Solo is about 9/10.
The chorus strumming pattern is down,down,down,up,down,up,down,up Enjoy!!!!
Update: 100% right
Drop C tuning

Intro Julien Rhythem
D---------3~---------------------------|
A-----3-------3------3------3----3-----|
F--------------------------------------|
C-0-------------3-------2------0-------| x4
G---0--------------3-------2-----------|
C--------------------------------------|

Lixx Lead
D--------------------------------------------------------|
A--------------------------3~~~~~~~~---------------------|
F--------------------------2~~~~~~~~---------------------|
C-----------------3-2-0--------------------5-3-0-3-5-----|
G-----------------3-2-0--------------------5-3-0-3-5-----|
C-----------------3-2-0--------------------5-3-0-3-5-----|

Pre-verse 

D---------------------------------------------------------------|
A---------------------------------------------------------------|
F--------------------------------------------1---------0--------|
C-7-5-0-3-5-0---7-5-0-3-5-0---7-5-0-3-5-3-3----0--2--3-----3-0--| 
G-7-5-0-3-5-0---7-5-0-3-5-0---7-5-0-3-5-3-3----0--2--3-----3-0--|
C-7-5-0-3-5-0---7-5-0-3-5-0---7-5-0-3-5-3-3----0--2--3-----3-0--|

Verse Julien and Lixx
Hey I want a taste  You're a black heart devil..
D-------------------------------------------------------------------|
A-------------------------------------------------------------------|
F----------------------------------------------------1-------0------|
C-7-5-0-3-5-0---7-5-0-3-5-0---7-5-0-3-5-3-3---0-2-3----0-2-3---3-0--|X3 
G-7-5-0-3-5-0---7-5-0-3-5-0---7-5-0-3-5-3-3---0-2-3----0-2-3---3-0--|
C-7-5-0-3-5-0---7-5-0-3-5-0---7-5-0-3-5-3-3---0-2-3----0-2-3---3-0--|

Pre-chorus Julien and Lixx
Every night she seems to change her name does it matter who you really are..
D-------------------------------------------------------------------|
A-------------------------------------------------------------------|
F----------------------------------------------------1-------0------|
C-7-5-0-3-5-0---7-5-0-3-5-0---7-5-0-3-5-3-3---0-2-3----0-2-3---3-0--|X2
G-7-5-0-3-5-0---7-5-0-3-5-0---7-5-0-3-5-3-3---0-2-3----0-2-3---3-0--|
C-7-5-0-3-5-0---7-5-0-3-5-0---7-5-0-3-5-3-3---0-2-3----0-2-3---3-0--|

Chorus Julien and Lixx
I ignite so hold on cuz we're about to light it up..
D-----------------------------------------|
A-3-3-3-3---------------------------------|
F-2-2-2-2--------------5-5-5-5------------|
C-0-0-0-0--2/-3-3-3-3--5-5-5-5---5-5-5-5--| x4
G----------2/-3-3-3-3--3-3-3-3---5-5-5-5--|
C----------2/-3-3-3-3------------5-5-5-5--|

About to light it up
D-------------------------------------------------------------------|
A-------------------------------------------------------------------|
F----------------------------------------------------1-------0------|
C-7-5-0-3-5-0---7-5-0-3-5-0---7-5-0-3-5-3-3---0-2-3----0-2-3---3-0--|X3 
G-7-5-0-3-5-0---7-5-0-3-5-0---7-5-0-3-5-3-3---0-2-3----0-2-3---3-0--|
C-7-5-0-3-5-0---7-5-0-3-5-0---7-5-0-3-5-3-3---0-2-3----0-2-3---3-0--|

Verse Julien and Lixx
Hey there's no escape  cuz i'm a hard time sinner with a bullet to waste..
D-------------------------------------------------------------------|
A-------------------------------------------------------------------|
F----------------------------------------------------1-------0------|
C-7-5-0-3-5-0---7-5-0-3-5-0---7-5-0-3-5-3-3---0-2-3----0-2-3---3-0--|X3 
G-7-5-0-3-5-0---7-5-0-3-5-0---7-5-0-3-5-3-3---0-2-3----0-2-3---3-0--|
C-7-5-0-3-5-0---7-5-0-3-5-0---7-5-0-3-5-3-3---0-2-3----0-2-3---3-0--|

Pre-Chorus Julien and Lixx
I got the whiskey running through my veins tip me over and corer the valve..
D-------------------------------------------------------------------|
A-------------------------------------------------------------------|
F----------------------------------------------------1-------0------|
C-7-5-0-3-5-0---7-5-0-3-5-0---7-5-0-3-5-3-3---0-2-3----0-2-3---3-0--|X2
G-7-5-0-3-5-0---7-5-0-3-5-0---7-5-0-3-5-3-3---0-2-3----0-2-3---3-0--|
C-7-5-0-3-5-0---7-5-0-3-5-0---7-5-0-3-5-3-3---0-2-3----0-2-3---3-0--|

Chorus Julien and Lixx
I ignite so hold on cuz we're about to light it up..
D-----------------------------------------|
A-3-3-3-3---------------------------------|
F-2-2-2-2--------------5-5-5-5------------|
C-0-0-0-0--2/-3-3-3-3--5-5-5-5---5-5-5-5--| x4
G----------2/-3-3-3-3--3-3-3-3---5-5-5-5--|
C----------2/-3-3-3-3------------5-5-5-5--|

Interlude Julien and Lixx
It keeps calling my name..
C-----------------------------------------------------------------|
A-----------------------------------------------------------------|
F-----------------------------------------------------------------|
C-7-5-0-3-5-0-2--7-5-0-3-5-0-2--7-5-0-3-5-0-2-7-7-7-7-10-10-10-10-|
G-7-5-0-3-5-0-2--7-5-0-3-5-0-2--7-5-0-3-5-0-2-7-7-7-7-10-10-10-10-|
C-7-5-0-3-5-0-2--7-5-0-3-5-0-2--7-5-0-3-5-0-2-7-7-7-7-10-10-10-10-|
                                            pm . . . . 

Solo
Julien
D-------------------------------------------------------------------|
A-------------------------------------------------------------------|
F----------------------------------------------------1-------0------|
C-7-5-0-3-5-0---7-5-0-3-5-0---7-5-0-3-5-3-3---0-2-3----0-2-3---3-0--|X3
G-7-5-0-3-5-0---7-5-0-3-5-0---7-5-0-3-5-3-3---0-2-3----0-2-3---3-0--|
C-7-5-0-3-5-0---7-5-0-3-5-0---7-5-0-3-5-3-3---0-2-3----0-2-3---3-0--|


Lixx
Alter pick all the way to 17/9
D----------------------------------------------------------------------|
A-10-13-12-10-13-12-10-13-12-10-13-12-10-13-12-10-13-12-10-13-12-17/9--|
F----------------------------------------------------------------------|
C----------------------------------------------------------------------|
G----------------------------------------------------------------------|
C----------------------------------------------------------------------|

    /hold in bend/
D---------------------------------------------------------------------|
A-12b-12-12-12-12-13br-13-10-11-10b-10~-12-13-14-16p15-17b-17b-17b-17b|
F---------------------------------------------------------------------|
C---------------------------------------------------------------------|
G---------------------------------------------------------------------|
C---------------------------------------------------------------------|


D---------------------|
A-15h17p15~-----------|
F---------------------|
C---------------------|
G---------------------|
C---------------------|

Bridge
Julien

D---------3~---------------------------|
A-----3-------3------3------3----3-----|
F--------------------------------------|
C-0-------------3-------2------0-------| x4
G---0--------------3-------2-----------|
C--------------------------------------|

Lixx
C-------------------|
G------------3------|
C------------2------|
F--2-3-0------------|
A--2-3-0------------|
D--2-3-0------------|

Your daddy told you not to play my game....

Chorus
Julien and Lixx
I ignite so hold on cuz we're about to light it up..
D-----------------------------------------|
A-3-3-3-3---------------------------------|
F-2-2-2-2--------------5-5-5-5------------|
C-0-0-0-0--2/-3-3-3-3--5-5-5-5---5-5-5-5--| x4
G----------2/-3-3-3-3--3-3-3-3---5-5-5-5--|
C----------2/-3-3-3-3------------5-5-5-5--|

Outro
Julien
C------------------------------------------------------|
G------------------------------------------------------|
C------------------------------------------------------|
F-5~~~~~~~~~~~~~--------------5-3-0-3-5--3-0-~~~~~~~~~-|
A-5~~~~~~~~~~~~~--------------5-3-0-3-5--3-0-~~~~~~~~~-|
D-5--~~~~~~~~~~~~~------------5-3-0-3-5--3-0-~~~~~~~~~-|

Lixx
C-------------------------|
G-17brb~~~~---------------|
C-------------------------|
F----------17\7----7~~----|--sustain
A----------17\7-----------|
D----------17\7-----------|


            
            
Suggest correction
Creating personal tab
Creating personal tab
You can edit any tab online and save it as your Personal.

You can edit, replace or remove any tab part or add personal notes – all changes will be seen only by you.

Personal tabs can be accessed anytime from any device, even offline.
Learn more »
Give kudos to tab author, rate the tab!
1 2 3 4 5
comments
print report bad tab
5 comments total. Showing first comments.
+1 reply
guitars4jacob 41 Jun 02, 2009 10:12 PM

Great tab! I was looking for these chords.

0 reply
bagelbob 10 Jun 03, 2009 03:24 PM

is this tabbed upside down? or am i trippin?lol :D

0 reply
littlerocker141 154 Jun 04, 2009 04:57 PM

Every thing is right

guest
You may want to rate the tab now too:
select rating
Wanna post a correction for this tab? Suggest correction