Oops, an error
Loading. Please wait.

Heavyweight Champion Of The World bass

version 2
version 2

Whole song

Interactive

3,968 views 1 this week
3 commentsread comments
1 2 3 4 5
x 6
add to favorites
×
Save as Personal and add changes to this tab that will be seen only by you. Learn more ›
×
You can save this tab as Personal to edit and correct it or add notes. All changes will be seen only by you. Learn more »
launch autoscroll
font size
0
reset
guitar tuner
edit
Autoscroll
slow
fast
+/-
esc
set tempo
stop
Difficulty
Artist: Reverend and The Makers 

Title: Heavyweight Champion Of The World

Tabbed By : Hooligan ( hooligan333@Remove_This_Line_gmail.com )

Tuning: EADG

This is a very simple song, but it sure is fun to play. Listen to the song for the timing.

~ = Let note ring

Intro / Verse

G|-------------|--------------|
D|-------------|--------7-4---|
A|-----5----5--|-----5--------|
E|-7-7----7----|-7-7----------| 

Chorus

G|--------------|--------------|
D|--------------|--------------|
A|------------5-|------------5-|
E|-7-7-7--5-7---|-7-7-7--5-7---| 

G|--------------|--------------|
D|--------------|--------------|
A|-7-7-7----5-7-|-7-7-7----5-7-|
E|--------7-----|--------7-----|

Interlude (Sorry, don't know what else to call it)

G|-------------|--------------|
D|-------------|--------------|
A|-------------|--------------|
E|-7~--5~--0~--|-3-3-5--------|

G|-------------|--------------|
D|-------------|--------------|
A|-------------|--------------|
E|-7~--5~--0~--|-3-3-5--7~~~--|  

Song structure:

Verse x 12
Chorus x 2
Verse x 6
Chorus x 4
Interlude x 1
Chorus x 8

(And that very last note is E|--7~--|)

I'm quite certain this is perfectly correct, so have fun!

            
            
Suggest correction
Creating personal tab
Creating personal tab
You can edit any tab online and save it as your Personal.

You can edit, replace or remove any tab part or add personal notes – all changes will be seen only by you.

Personal tabs can be accessed anytime from any device, even offline.
Learn more »
comments
print report bad tab
3 comments total.
0 reply
BrookyMCR 31 Jan 08, 2008 12:02 AM

Best Tab by far, thanks :)

0 reply
Jon McClane 10 Jul 08, 2008 03:55 PM

This is a very good tab, well done

There is one small mistake though, the last two bars of the chorus should go like this:

G|--------------|--------------|
D|--------------|--------------|
A|-7-7-7--5---5-|-7-7-7--5-----|
E|----------7---|----------7-5-|

0 reply
martin sandford 85 Apr 11, 2010 12:04 PM

jon is right :) aand its a goooooood tab :)

guest
Wanna post a correction for this tab? Suggest correction