Oops, an error
Loading. Please wait.

Doom Over The World tab

version 2
version 2

Whole song

Interactive

489 views 1 this week
no commentswrite comment
1 2 3 4 5
3 more votes to show rating
add to favorites
×
Save as Personal and add changes to this tab that will be seen only by you. Learn more ›
×
You can save this tab as Personal to edit and correct it or add notes. All changes will be seen only by you. Learn more »
launch autoscroll
font size
0
reset
how to read this tab
guitar tuner
edit
Autoscroll
slow
fast
+/-
esc
set tempo
stop
Difficulty
Song: Doom Over The World
Artist: Reverend Bizarre
Album: II: Crush The Insects
Year: 2005
Label: Spinefarm
Tuning: E Standard
Tabbed by Alexi.K

Intro (4/4)
E|-------------------|--------------------|-------------------|-------------------|
A|-------------------|--------------------|-------------------|-------------------|
D|-------------------|--------------------|-------------------|-------------------|
G|-9-----------------|-(9)----------------|-12----------------|-11----------------|
B|-9-----------------|-(9)----------------|-12----------------|-11----------------|
E|-7-----------------|-(7)----------------|-10----------------|-9-----------------|

Lead In (3/4)            
E|---------------------|---------------------|---------------------|-----------------------|
A|---------------------|---------------------|---------------------|-----------------------|
D|---------------------|---------------------|---------------------|-----------------------|
G|---------------------|---------------------|---------------------|----------------7--7---|
B|-9----9----9----9----|-9----9----9----9----|-9----9----9----9----|-9----9----9----7--7---|
E|-7--7-7--7-7--7-7--7-|-7--7-7--7-7--7-7--7-|-7--7-7--7-7--7-7--7-|-7--7-7--7-7--7-5--5---|

Main Riff
E|---------------------|-----------------------|
A|---------------------|-----------------------|
D|---------------------|-----------------------|
G|---------------------|-----------------------|
B|-9----9----9----9----|-5--5-4--7------7--7---|
E|-7--7-7--7-7--7-7--0-|-3--3-2--5----5-5--5---|

Main Riff 2
E|---------------------|----------------------------|
A|---------------------|----------------------------|
D|---------------------|----------------------------|
G|---------------------|----------------------------|
B|-9----9----9----9----|-12-----12--11----11-12--11-|
E|-7--7-7--7-7--7-7--0-|-10--10-10--9-----9--10--9--|

Chorus
E|---------------------|----------------------|
A|---------------------|----------------------|
D|---------------------|----------------------|
G|---------------------|----------------------|
B|-9----9----9----9----|-9----9----9----9--11-|
E|-7--7-7--7-7--7-7--7-|-7--7-7--7-7--7-7--9--|

E|-----------------------------|-----------------------------|
A|-----------------------------|-----------------------------|
D|-----------------------------|-----------------------------|
G|-----------------------------|-----------------------------|
B|-12-----12-----12-----12-----|-12-----12-----12-----14--12-|
E|-10--10-10--10-10--10-10--10-|-10--10-10--10-10--10-12--10-|


E|-----------------------------|-----------------------------|
A|-----------------------------|-----------------------------|
D|-----------------------------|-----------------------------|
G|-----------------------------|-----------------------------|
B|-11-----11-----11-----11-----|-10-----10-----10-----10-----|
E|-9---9--9---9--9---9--9---9--|-8---8--8---8--8---8--8---8--|

E|---------------------|----------------------------|
A|---------------------|----------------------------|
D|---------------------|----------------------------|
G|---------------------|----------------------------|
B|-9----9----9----9--9-|-9-9-9-10-10-10-7-7-7-9-9-9-|
E|-7--7-7--7-7--7-7--7-|----------------------------|

Solo 1 - Main Riff x4
E|--------------------------------------------------------------------------------|
A|--------------------------------------------------------------------------------|
D|--------------------------------------------------------------------------------|
G|--------------------------------------------------------------------------------|
B|--------------------------------------------------------------------------------|
E|--------------------------------------------------------------------------------|

Solo 2 - Octaves
E|--------------------------------------------------------------------------------|
A|--------------------------------------------------------------------------------|
D|--------------------------------------------------------------------------------|
G|--------------------------------------------------------------------------------|
B|--------------------------------------------------------------------------------|
E|--------------------------------------------------------------------------------|

Fill            Pick Slide
E|---------------------|
A|---------------------|
D|---------------------|
G|--------------x\-----|
B|--------------x\-----|
E|--------------x\-----|

Final Riff
E|----------------------------|
A|----------------------------|
D|----------------------------|
G|----------------------------|
B|-9-9-9-10-10-10-7-7-7-9-9-9-|
E|----------------------------|

Outtro
E|------------------|-------------------|-------------------|--------------------|
A|------------------|-------------------|-------------------|--------------------|
D|------------------|-------------------|-------------------|--------------------|
G|-9----------------|-(9)---------------|-11----------------|-12-----------------|
B|-9----------------|-(9)---------------|-11----------------|-12-----------------|
E|-7----------------|-(7)---------------|-9-----------------|-10-----------------|

E|------------------|-------------------|-------------------|--------------------|
A|------------------|-------------------|-------------------|--------------------|
D|------------------|-------------------|-------------------|--------------------|
G|-9----------------|-9-----------------|-9-----------------|-9------------------|
B|-9----------------|-9-----------------|-9-----------------|-9------------------|
E|-7----------------|-7-----------------|-7-----------------|-7------------------|

Free Improv
E|--------------------------------------------------------------------------------|
A|--------------------------------------------------------------------------------|
D|--------------------------------------------------------------------------------|
G|--------------------------------------------------------------------------------|
B|--------------------------------------------------------------------------------|
E|--------------------------------------------------------------------------------|

End
E|------------------|
A|------------------|
D|------------------|
G|-9\---------------|
B|-9\---------------|
E|-7\---------------|

Structure:
Intro x4
Lead In 
Main Riff x8
Main Riff 2 x4
Main Riff x8
Chorus x2
Main Riff x8
Chorus x2
Main Riff x4
Solo 1 (8 bars) 
Solo 2 (8 bars + fill) 
Chorus x4
Final Riff x3
Outtro
Free Improv
End

The solo is easy enough, figure it out yourself or just improvise.

            
            
Suggest correction
Creating personal tab
Creating personal tab
You can edit any tab online and save it as your Personal.

You can edit, replace or remove any tab part or add personal notes – all changes will be seen only by you.

Personal tabs can be accessed anytime from any device, even offline.
Learn more »
Give kudos to tab author, rate the tab!
1 2 3 4 5
comments
print report bad tab
guest
Wanna post a correction for this tab? Suggest correction