Oops, an error
Loading. Please wait.

Alliance And Tyranny tab

964 views 1 this week
1 commentread comment
1 2 3 4 5
x 5
add to favorites
×
Save as Personal and add changes to this tab that will be seen only by you. Learn more ›
×
You can save this tab as Personal to edit and correct it or add notes. All changes will be seen only by you. Learn more »
launch autoscroll
font size
0
reset
how to read this tab
guitar tuner
edit
Autoscroll
slow
fast
+/-
esc
set tempo
stop
[Riff A]
D#|--------------------------------------------------------------------|
A#|--------------------------------------------------------------------|
F#|--------------------------------------------------------------------|
C#|---12-12--12--12-----10-10-10-10------7-----------10-10-10----10----|
G#|---8---8---8---8-----7---7--7--7------8------7----8--8-8--888-8-----|
C#|---0---0---0---0-0-0-0---0--0--0-0-0-0--0-7-8-8-0-8--8-8--888-8-----|

D#|------------------------------------------------------------------------------|
A#|------------------------------------------------------------------------------|
F#|------------------------------------------------------------------------------|
C#|---12-12--12--12--------10-10-10--10-----------7-------------------10---------|
G#|---8---8---8---8--------7---7--7--7------------8-----------7-------8----------|
C#|---0-- 0---0---0---0-0--0---0--0--0----0-0-0---------0-7-8----8--0-8----------|

D#|-----------------------------------------------------------------|
D#|-----------------------------------------------------------------|
F#|--------------10-10-10-10-10-10--------------9-9-9-9-9-9----10~--|
C#|--7-7-7-7-7-7--------------------5-5-5-5-5-5----------------7~---|
G#|---------------------------------------------------------8-------|
C#|-----------------------------------------------------------------|

[Riff B]                                                      
                                                                  P.H.
D#|--------------------------------------------------------------------------------------|
A#|--------------------------------------------------------------------------------------|
F#|-------0-------------------------------0----------------------------------------------|
C#|--------0-----/3-3-----3-3----3----------0-----/3-3-----------------------------------|
G#|---2h3---3----/5-5-----5-5----5----2h3-----3---/5-5-------/5--------------------------|
C#|--------------/3-3-3-3-3-3--3-3----------------/3-3---3-3----x-3~---------------------|

(The natural harmonics you hear after the 4th time around are over the 5th fret, B and G 
strings, respectively.)

[Riff C]
D#|-------------------------------------------------------------------------------------------|
A#|-------------------------------------------------------------------------------------------|
F#|-------------------------------------10-10----------9-9--------10-10----------9------------|
C#|------12--12------------10-10--------12-12---------12-12-------12-12----------12-----------|
G#|------10--10------------8---8---------8-8-----------8-8---------8-8-----------8------------|
C#|------10--10--10--10----8---8---8-8---8-8--8-8-8-8--8-8-8-8-8-8-8-8-8-8-8-8-8-8------------|

D#|--------------------------------------------------------------------------------------------|
A#|--------------------------------------------------------------------------------------------|
F#|-------------------------------------10-------------9---------------10----------------9-----|
C#|------12--12------------10-10----------12------12------12------12------12-------12----12----|
G#|------10--10------------8---8-----------------8---8----------8----8-----------8----8--8-----|
C#|------10--10--10--10----8---8---888---------8---------------8---------------8---------8-----|

[Riff D]
                                      (First ending)      (2nd ending)
D#|----------------------------------|------------------|---------------|
A#|----------------------------------|------------------|---------------|
F#|------------5-----------9/12------|------------------|---------------|
C#|--------------------7-------------|--10----9---------|--10------12---|
G#|------8-5-3---3h4/8---8-----------|-----12----10-----|-----10-8------|
C#|----0-----------------------------|------------------|---------------|

(The clean interlude is in a 7/8 time signature, except for the last time when it goes to 4/4 so you need
to play the rest of the chord to complete the bar.)

[Riff E]
                                               (Play this on the last time)
D#|-------------------------------------------|-------------------------|
A#|-------------1p0--------------------3p0----|---------3p0-------------|
F#|----------0------0---------------0------0--|-------0-----0-----------|
C#|-------3-----------------------5-----------|-----5---------5---------|
G#|----3-----------------------5--------------|---5-------------5-------|
C#|--0-----------------------0----------------|-0-----------------------|

[Riff F]
D#|--------------------------------------------------------------------------------------|
A#|--------------------------------------------------------------------------------------|
F#|--------------------------------------------------------------------------------------|
C#|---------------2-3-2h3p2----2-3-2---2-----------5------5-5-----5-----5--5-------------|
G#|-----0----------------------------3---3---------3------3-3-----2-----2--2------2/5-5--|
C#|-----0-----0------------------------------0-----3------3-3--0--2-----2--2---0--2/5-5--|

(The riff behind Dave's solo is basically what you see above minus the higher notes at 
the beginning. In their place just let the open Db and Ab strings ring out.)

(the harmony comes in like this) (same ending as Riff F)
D#|---------------------------------------------------------------------------|
A#|---------------------------------------------------------------------------|
F#|---------------------------------------------------------------------------|
C#|---------------2-3-2---5--3h5p3--2-3--2h3p2-----2--------------------------|
G#|----0----------------------------------------3----3------------------------|
C#|----0-----0----------------------------------------------------------------|

D#|------------------------------------------------------------------------------|
A#|------------------------------------------------------------------------------|
F#|------------------------------------------------------------------------------|
C#|-------------5-7-5--8---7h8p7----5-7----5h7p5---5-----------------------------|
G#|--0-------------------------------------------7----7--------------------------|
C#|--0---0-----------------------------------------------------------------------|

                                          (First ending. After a few times around with this 
                                          riff, leave out the open notes and tremolo pick your
                                          way through it.)
D#|------------------------------------|--------------------------------------------------|
A#|------------------------------------|--------------------------------------------------|
F#|------------------------------------|--------------------------------------------------|
C#|---------3p2--3-----3p2-3----3p2-3--|------7-------5-------8-----7------7/8------------|
G#|---------5-5--5-----5-5-5----5-5-5--|------8-------7------10-----8------8/10-----------|
C#|--0-0------------0---------0--------|--0-0----0-0-----0-0-----0-0---0-0----------------|

(2nd ending)
D#|-------------------------------------------------|
A#|-------------------------------------------------|
F#|-------------------------------0--------0--------|
C#|--------7----------5--------0--------0-----------|
G#|-----8----------7--------3--------2--------------|
C#|--0----------0-----------------------------------|

(and the song finishes on this pretty cool sounding chord which is)
D#|-----------------------0-------|
A#|--------------------0-----0----|
F#|-----------------5----------5--|
C#|-------------3-----------------|
G#|----------5--------------------|
C#|-------0-----------------------|

[Solo]
D#|----------------------------------------------------------------------------13b-13b--13r--15br-15p13----|
A#|-13--13----13----13-----13----13---13--------------------------13b-13br-p10--------------------------15~|
F#|-12b---12b---12b----12b---12b---12b---12p--12br12-10-12-10----------------------------------------------|
C#|--------------------------------------------------------------------------------------------------------|
G#|--------------------------------------------------------------------------------------------------------|
C#|--------------------------------------------------------------------------------------------------------|

D#|---------------13-15-16-17-18b--18b-17-16-15-13-15-15b-p13-15-13----12-13-12~~~--|
A#|----13--15-----------------------------------------------------------------------|
F#|---------------------------------------------------------------------------------|
C#|---------------------------------------------------------------------------------|
G#|---------------------------------------------------------------------------------|
G#|---------------------------------------------------------------------------------|

Do a slide in between each chord here.                     Tapped harmonic at 24th fret
D#|---12-13-12------------------------------------------------------|
A#|------------13-15-13---------------------------------------------|
A#|----9-10-9-------------12-14-12---10-12-10-9--10--12--12t(24)----|
C#|------------10-12-10---------------------------------------------|
G#|-----------------------10-12-10----8-10-8--7--8--10--------------|
G#|-----------------------------------------------------------------|

                           Shred this a few times   same with this
D#|-----------------------------10------------------------------------------------------12--|
A#|-----13br10--13-10--------------13--10-----------13p10---15p10-------13br p10------------|
A#|--------------------12p10--------------12--------------12-----12--------------12--10--9--|
C#|-----------------------------------------------------------------------------------------|
G#|-----------------------------------------------------------------------------------------|
G#|-----------------------------------------------------------------------------------------|


************************************

| ~   Vibrato
| /   Slide up
| h   Hammer-on
| x   Dead note
| p   Pull-off
| r   Release
| b   Bend
| br  Bend release

************************************

            
            
Suggest correction
Creating personal tab
Creating personal tab
You can edit any tab online and save it as your Personal.

You can edit, replace or remove any tab part or add personal notes – all changes will be seen only by you.

Personal tabs can be accessed anytime from any device, even offline.
Learn more »
comments
print report bad tab
1 comment total.
0 reply
mymwhite-ra 10 Apr 25, 2016 10:27 AM

UG won't allow me to rate this tab for some reason and if it would've - it's no doubt 5/5

guest
You may want to rate the tab now too:
select rating
Wanna post a correction for this tab? Suggest correction