Oops, an error
Loading. Please wait.

Olas Muertas tab

30 views 1 this week
no commentswrite comment
1 2 3 4 5
3 more votes to show rating
add to favorites
×
Save as Personal and add changes to this tab that will be seen only by you. Learn more ›
×
You can save this tab as Personal to edit and correct it or add notes. All changes will be seen only by you. Learn more »
launch autoscroll
font size
0
reset
how to read this tab
guitar tuner
edit
Autoscroll
slow
fast
+/-
esc
set tempo
stop
hola a todos, acabo de incorporarme a esta pag, y he podido sacar
la intro de la cancion de revolver, olas muertas, espero que os
sirva, que os guste, y espero que si tiene errores, contactéis
en mi mail alex_abaran@ y me corrijáis.
va dedicada a todos los que como yo, nos preocupa el futuro de
nuestro planeta.

un abrazo, ciao!


e |--7--5--3----------------------3-----------|
B |-----------5--3----------3--5-----3--------|
G |-----------------5----5--------------5-----|
D |-------------------------------------------|
A |-------------------------------------------|
E |-------------------------------------------|

e |--7--5--3----------------------3--5---5----|
B |-----------5--3----------3--5--------------|
G |-----------------5----5--------------------|
D |-------------------------------------------|
A |-------------------------------------------|
E |-------------------------------------------|

e |--3--5--7--7--7--5--2-------5--3-----3-----|
B |------------------------3-5--------5-------|
G |-------------------------------------------|
D |-------------------------------------------|
A |-------------------------------------------|
E |-------------------------------------------|

e |------------5--3---------------------------|
B |--5--3-------------5----3--5--3------------|
G |--------5-------------------------5--------|
D |-------------------------------------------|
A |-------------------------------------------|
E |-------------------------------------------|

P.D. creo que distorsionando los punteos en la
guitarra eléctrica, quedará fenomenal.

            
            
Suggest correction
Creating personal tab
Creating personal tab
You can edit any tab online and save it as your Personal.

You can edit, replace or remove any tab part or add personal notes – all changes will be seen only by you.

Personal tabs can be accessed anytime from any device, even offline.
Learn more »
Give kudos to tab author, rate the tab!
1 2 3 4 5
comments
print report bad tab
guest
Wanna post a correction for this tab? Suggest correction