Oops, an error
Loading. Please wait.

Keine Liebeslieder Unplugged chords

976 views 9 this week
2 commentsread comments
1 2 3 4 5
x 3
add to favorites
×
Save as Personal and add changes to this tab that will be seen only by you. Learn more ›
×
You can save this tab as Personal to edit and correct it or add notes. All changes will be seen only by you. Learn more »
launch autoscroll
font size
0
reset
transpose
0
reset
display chords
guitar tuner
edit
Autoscroll
slow
fast
+/-
esc
set tempo
stop
Strumming
There is no strumming pattern for this song yet. and get +5 IQ
-------------------------------------------------------------------------------
                 Keine Liebeslieder (unplugged) - Revolverheld
-------------------------------------------------------------------------------
Tabbed by: Ascha97
E-mail:

Tuning: Standart Tuning (Capo 1st fret)


[Intro]

e|------------------------------------------------------------|
B|----------------------5-------------------------------------|
G|--------1--2--2/4--4----4--4/6--4--2-------1--1-------------|
D|----2h4-------------------------------2h4--------4--2-------|
A|------------------------------------------------------------|
E|--0---------------------------------------------------------|   4x


    E              G#m          A              B

e|------------------------------------------------------------|
B|----------------------5-------------------------------------|
G|--------1--2--2/4--4----4--4/6--4--2-------1--1-------------|
D|----2h4-------------------------------2h4--------4--2-------|
A|----------------------------(0)------------(2)--------------|
E|--0-------------(4)-----------------------------------------|   4x



[Verse]
                  E  G#m             A                  B
Du trocknest mein Herz, legst meine Welt in Schutt und Asche
              E  G#m        A                  B
triffst jeden Nerv, und du kannst dabei noch lachen
            E  G#m  A                    B
frag mich warum,   kannst du mich nicht hassen?
            E  G#m    A                 B
Du bist perfekt, aber kannst mich nicht verlassen

               E  G#m           A                     B
Was sollen wir reden, wenn wir eigentlich gar nichts sagen?
                   E  G#m          A             B
Du kannst so nicht leben, und das alles nicht ertragen
          E  G#m           A          B
Siehst du nicht, dass wir beide übertreiben?
         E  G#m            A            B
Nur noch Pflicht, und ich breche unser Schweigen

E



[Chorus]
                 E                          C#m                    A            B
Ich schmeiß dich raus, hab deine Platten verkauft, ich will keine Liebeslieder mehr
                 E                          C#m                    A            B
Ich schmeiß dich raus, hab deine Platten verkauft, ich will keine Liebeslieder mehr



[Post-Chorus]

E | C#m | A | B | 2x



[Verse]
                   E  G#m        A                  B
Du bist der Tausendsassa, alles fliegt dir einfach zu
               E  G#m             A              B
Doch der Alleshasser, lässt dich innen nicht in Ruh,
       E  G#m      A          B
Es ist Zeit, sich endlich zu entscheiden
          E  G#m           A                    B
zwischen "Liebe" und "Ich kann dich doch nicht leiden"

E



[Chorus]
                 E                          C#m                    A            B
Ich schmeiß dich raus, hab deine Platten verkauft, ich will keine Liebeslieder mehr
                 E                          C#m                    A            B
Ich schmeiß dich raus, hab deine Platten verkauft, ich will keine Liebeslieder mehr



[Bridge]
C#m                     A                    E           B
Du wirst mich nie mehr einsperr'n, mich nie mehr manipulier'n
C#m                 A                     E                 B           C
Und ich werde nach vorn' schau'n und den Rückweg verbarrikadier'n 



[Post-Chorus]

E | C#m | A | B | 2x



[Chorus]
                 E                          C#m                    A            B
Ich schmeiß dich raus, hab deine Platten verkauft, ich will keine Liebeslieder mehr
                 E                          C#m                    A            B
Ich schmeiß dich raus, hab deine Platten verkauft, ich will keine Liebeslieder mehr



[Outro]

    E                          C#m

e|------------------------------------------------------------|
B|----------------------5-------------------------------------|
G|--------1--2--2--4--4----4--4/6--4--2-------1--1------------|
D|----2h4-------------------------------2h4--------4--2-------|
A|------------------------------------------------------------|
E|--0---------------------------------------------------------|   

    A                          B

e|------------------------------------------------------------|
B|----------------------5-------------------------------------|
G|--------1--2--2--4--4----4--4/6--4--2-------1--1------------|
D|----2h4-------------------------------2h4--------4--2-------|
A|------------------------------------------------------------|
E|--0---------------------------------------------------------|   

 2x

 E

************************************

| /   slide up
| \   slide down
| h   hammer-on
| p   pull-off
| ~   vibrato
| +   harmonic
| x   Mute note
| b   Bend
| pb  Pre-bend
| br  Bend release
| pbr Pre-bend release
| brb Bend release bend

************************************

            
            
Suggest correction
Creating personal tab
Creating personal tab
You can edit any tab online and save it as your Personal.

You can edit, replace or remove any tab part or add personal notes – all changes will be seen only by you.

Personal tabs can be accessed anytime from any device, even offline.
Learn more »
Give kudos to tab author, rate the tab!
1 2 3 4 5
comments
print report bad tab
2 comments total.
0 reply
chrisrocks-u 92 Dec 20, 2015 03:26 AM

Perfekt! Passt super!

0 reply
leahenchanted 56 Jul 01, 2016 07:31 AM

Finally a good one for this song ! Works with the studio version as well. just put capo on first :)

guest
You may want to rate the tab now too:
select rating
Wanna post a correction for this tab? Suggest correction