Oops, an error
Loading. Please wait.

Hasta Que Amanezca tab

by Reyli
23 views 1 this week
no commentswrite comment
1 2 3 4 5
3 more votes to show rating
add to favorites
×
Save as Personal and add changes to this tab that will be seen only by you. Learn more ›
×
You can save this tab as Personal to edit and correct it or add notes. All changes will be seen only by you. Learn more »
launch autoscroll
font size
0
reset
how to read this tab
guitar tuner
edit
Autoscroll
slow
fast
+/-
esc
set tempo
stop
         Gm
Está la noche por despertar, la madrugada vendrá caliente,
1. ------------------------------------------------------|
2. ------------------------------------------------------|
3. ------------------------------------------------------|(Ahogando las cuerdas)
4. ---5-x-5-5-5-3---3----------------5-x-5-5-5-3---3-----|
5. ---------------5---5--------------------------5---5---|
6. ------------------------------------------------------|
         F                    D#                   D
toda la gente quiere gozar buscando endulzar su suerte.
1. -----------------------------3---------------------|
2. ----------------------------4----------------------|
3. ---------------------------3-----------------------|
4. --------------------------5------------------------|
5. ------3-x-3-3-5-3-5--------------------------------|
6. ---------------------------------------------------|


*Intro: (X2)

    Gm                        F
1. -------------------------|-------------------------|
2. -----------3-----------3-|-----------1-----------1-|
3. -------3-3---------3-3---|-------2-2---------2-2---|
4. -5-5-5-------5-5-5-------|-3-3-3-------3-3-3-------|
5. -------------------------|-------------------------|
6. -------------------------|-------------------------|

    D#                        D
1. -------------------------|---------------------|
2. -------------------------|-------------------3-|
3. -----------3-----------3-|-------------2-2-2---|
4. -------5-5---------5-5---|-------4-4-4---------|
5. -6-6-6-------6-6-6-------|-5-5-5---------------|
6. -------------------------|---------------------|


*Verso:

-Fill:

    Gm                              F                 D#          D
1. --3-3-3-1---1---|-3-3-3-1---1---|-----------------|----------------|
2. --3-3-3-1-3-1-3-|-3-3-3-1-3-1-3-|-1-1-1-1-1-3-1-3-|-4-4-4-4-4-4-3--|
3. *---------3---3-|---------3---3-|-2-2-2-2-2-2-2-2-|-3-3-3-3-3-3-2-*|
4. *---------------|---------------|-----------------|-5-5-5-5-5-5-4-*|
5. ----------------|---------------|-----------------|-6-6-6-6-6-6-5--|
6. ----------------|---------------|-----------------|----------------|

         Gm
Está la noche por despertar, la madrugada vendrá caliente,
         F                     D#                 D
toda la gente quiere gozar buscando endulzar su suerte,
        Gm
el agua es pa? quitar la sed, tu boca pa? enamorarse,
      F                    D#             D
tus besos pa? renacer, tu amor para desvelarme.


*Precoro:

  D#                     F
Y yo soy libre como el viento
1. ------------------------14h15p14-----------------------|
2. -------------------------------------------------------|
3. ---------------------------------15-14-12----------12~-|
4. -12h13~p10--------------------------------15-12-10-----|
5. -------------------------------------------------------|
6. -------------------------------------------------------|
  D#                         D
y voy a donde apunte el corazón.
1. ---------------------------10-10-10-10\-|
2. ----------------------------------------|
3. ----------------------------------------|
4. ----------------------------------------|
5. ----------------------------------------|
6. ----------------------------------------|


*Coro:

             Gm
Hasta que amanezca te amaré
            F
tiraré las penas, viviré
              D#
olvidado del mundo y de los pecados
            D
que nos condenan,
              Gm
lo que tú me pidas te daré
            F
porque yo nací para querer
              D#
cuanto tú me digas
                               D
te entrego todo y no te pido nada
               Gm
yo no te pido nada.


*Solo:


1. ------------------------------------------------------------------------|
2. ------------------------------------------------------------------------|
3. ------------------------------------------------------------------------|
4. -/3---2-2/3-----2-2-----/2-2---3-3/5-5---3-3/5-5-7-5-4h5p4--------------|
5. ----5-------3-5-----3-5------6---------6-------------------5p4h5p4h5p4~-|
6. ------------------------------------------------------------------------|

    Gm                        F
1. -------------------------|-------------------------|
2. -----------3-----------3-|-----------1-----------1-|
3. -------3-3---------3-3---|-------2-2---------2-2---|
4. -5-5-5-------5-5-5-------|-3-3-3-------3-3-3-------|
5. -------------------------|-------------------------|
6. -------------------------|-------------------------|

    D#                        D
1. -------------------------|----------------------|
2. -------------------------|-------------------3\-|
3. -----------3-----------3-|-------------2-2-2----|
4. -------5-5---------5-5---|-------4-4-4----------|
5. -6-6-6-------6-6-6-------|-5-5-5----------------|
6. -------------------------|----------------------|


*Verso:

  Gm
Somos de carne y hueso, el mundo es nuestro nido,
 F             D#                D
lo que quieras dar es lo que te pido,
  Gm
somos una esperanza buscando el paraíso,
F                D#            D
el mundo es una danza, un acertijo.


*Precoro:

  D#                     F
Y yo soy libre como el viento
1. ------------------------14h15p14-----------------------|
2. -------------------------------------------------------|
3. ---------------------------------15-14-12----------12~-|
4. -12h13~p10--------------------------------15-12-10-----|
5. -------------------------------------------------------|
6. -------------------------------------------------------|
  D#                         D
y voy a donde apunte el corazón.
1. ---------------------------10-10-8-10-10-8-10\-|
2. -----------------------------------------------|
3. -----------------------------------------------|
4. -----------------------------------------------|
5. -----------------------------------------------|
6. -----------------------------------------------|


*Coro:

             Gm
Hasta que amanezca te amaré
            F
tiraré las penas, viviré
              D#
olvidado del mundo y de los pecados
            D
que nos condenan,
              Gm
lo que tú me pidas te daré
            F
porque yo nací para querer
              D#
cuanto tú me digas
                               D
te entrego todo y no te pido nada
               Gm
yo no te pido nada.


*Solo: (Metales)


1. -3-----------3-----------3-------3-------------------2-|
2. ---3-----------3-------------3-----3---3-4-3-4-3-4-3---|
3. -----5-3-5-3-----5-3-5-3---5---5-----5-----------------|
4. -------------------------------------------------------|
5. -------------------------------------------------------|
6. -------------------------------------------------------|


1. -3-3-3-----------6-5-3---------------3-------3-----|-10-10-10-10-10\-|
2. -------3---------------3---------------3-------3---|-11-11-11-11-11\-|
3. ---------5-3-5-3---------3/5-3-3-5-3-----5-3-----5-|-----------------|
4. ---------------------------------------------------|-----------------|
5. ---------------------------------------------------|-----------------|
6. ---------------------------------------------------|-----------------|


*Coro:

             Gm
Hasta que amanezca te amaré
            F
tiraré las penas, viviré
              D#
olvidado del mundo y de los pecados
            D
que nos condenan,
              Gm
lo que tú me pidas te daré
1. ------------3----------|
2. -----------------------|
3. -----------------------|
4. -----------------------|
5. -----------------------|
6. -----------------------|
            F
porque yo nací para querer
1. ---------6-----5-------|
2. -----------------------|
3. -----------------------|
4. -----------------------|
5. -----------------------|
6. -----------------------|
              D#
cuanto tú me digas
1. -----------5-----3----|
2. ----------------------|
3. ----------------------|
4. ----------------------|
5. ----------------------|
6. ----------------------|
                               D
te entrego todo y no te pido nada
               Gm      F
y no te pido nada,
1. -------------3------6------5-----|
2. ---------------------------------|
3. ---------------------------------|
4. ---------------------------------|
5. ---------------------------------|
6. ---------------------------------|
               D#                 D
yo no te pido nada,
1. -------------------8-----6----10-11-10-11-10-11-10-|
2. ---------------------------------------------------|
3. -------------7-------------------------------------|
4. ---------------------------------------------------|
5. ---------------------------------------------------|
6. ---------------------------------------------------|
              Gm                           F
hasta que amanezca, te doy el corazón completo,
1. ------------3-3-3-----------------------6-5-3---------------|
2. ------------------3---------------------------3-------------|
3. --------------------5-3-5-3---------------------3/5-3-3-5-3-|
4. ------------------------------------------------------------|
5. ------------------------------------------------------------|
6. ------------------------------------------------------------|
              D#                       D
hasta que amanezca, mamá, vida de mi vida.
1. -----------3-------3---------------10-10-10-10-10\-|
2. -------------3-------3-------------11-11-11-11-11\-|
3. ---------------5-3-----5---------------------------|
4. ---------------------------------------------------|
5. ---------------------------------------------------|
6. ---------------------------------------------------|


*Outro:

    Gm                        F
1. -------------------------|-------------------------|
2. -----------3-----------3-|-----------1-----------1-|
3. -------3-3---------3-3---|-------2-2---------2-2---|
4. -5-5-5-------5-5-5-------|-3-3-3-------3-3-3-------|
5. -------------------------|-------------------------|
6. -------------------------|-------------------------|

    D#                        D                    Gm
1. -------------------------|----------------------3\|
2. -------------------------|-------------------3--3\|
3. -----------3-----------3-|-------------2-2-2----3\|
4. -------5-5---------5-5---|-------4-4-4----------5\|
5. -6-6-6-------6-6-6-------|-5-5-5----------------5\|
6. -------------------------|----------------------3\|
                             Zumbalé, zumbalé, zumbalé, ya.

            
            
Suggest correction
Creating personal tab
Creating personal tab
You can edit any tab online and save it as your Personal.

You can edit, replace or remove any tab part or add personal notes – all changes will be seen only by you.

Personal tabs can be accessed anytime from any device, even offline.
Learn more »
Give kudos to tab author, rate the tab!
1 2 3 4 5
comments
print report bad tab
guest
Wanna post a correction for this tab? Suggest correction