Oops, an error
Loading. Please wait.

A Usted bass

56 views 1 this week
no commentswrite comment
1 2 3 4 5
3 more votes to show rating
add to favorites
×
Save as Personal and add changes to this tab that will be seen only by you. Learn more ›
×
You can save this tab as Personal to edit and correct it or add notes. All changes will be seen only by you. Learn more »
launch autoscroll
font size
0
reset
guitar tuner
edit
Autoscroll
slow
fast
+/-
esc
set tempo
stop
No transcribi esta cancion para quedar bien con mis compatriotas.
sino pues una de mis piezas favoritas y tiene uno de mis versos
favoritos (que una vez le dedique a una compañera mia,
saludos por Ciudad Guayana, por el estado Bolivar, en Venezuela):

INTRO:

G -------------------------------------------------|
D ---9---9--7---7---7---------9-6---------6-7-8-9--|
A -7---7------7---7---7---9-7-----7---7------------|
E ----------------------7-----------7---7----------|

G ------------------------------------------|
D -------9----------------9-6---6-----------|
A -9---9---9-----6-7---7------7--------6-7--|
E ---7-------7-9-----7------------7--9------|

Versos (2 veces)("Usted me va a perdonar,
si alguna vez le ofendi ..."):

G ---------------------------------------|
D -----------6-7-8-9-------9----7--------|
A ---7---7-----------9---9---9----9------|
E -7---7---7-----------7-----------------|

G -------------------------|
D -------------------------|
A ---9---9---9-----6-7-----|
E -7---7---7---7-9-----7---|

Cambio (2 veces) ("Usted incita con su forma de mirar, usted embriaga
de pasion al sonreir, pero detras de todo eso hay amigos, y son las
cosas que no puedo permitir..."):

G -----------------------------------------------------|
D ---9---9-----6-7-------------------------------------|
A -7---7---7-9-----7-----7---7---7-----6-7---7---7-----|
E -------------------7-5---5---5---7-9-----7---7---7---|

G ---------------------------------------|
D -6-7-8-9-------9------------------9----|
A ---------9---9---9-----6-9--7---7---7--|
E -----------7-------7-9--------7--------|

Interludio: Cancion (1 vez)

Intro (1 vez)
Versos (2 veces)
Cambio (2 veces)

Luego toca esto para finalizar la cancion:

G --------------------|
D -7-7----9-9---------|
A ------------7-------|
E --------------------|


Esa es toda la cancion. Espero que les guste. Mi verso favorito es:
"Yo he mantenido limpiecita mi conciencia. Que lo haga otro,
¡Yo me siento bien asi!". Como consejo, oigan bien la cancion,
pues el ritmo es un poco dificil al principio, los cambios son muy
rapidos. No tiene muchos adornos. Es una version basica y lo demas
se los dejo al gusto de ustedes. Cuidence y hasta la proxima.

            
            
Suggest correction
Creating personal tab
Creating personal tab
You can edit any tab online and save it as your Personal.

You can edit, replace or remove any tab part or add personal notes – all changes will be seen only by you.

Personal tabs can be accessed anytime from any device, even offline.
Learn more »
Give kudos to tab author, rate the tab!
1 2 3 4 5
comments
print report bad tab
guest
Wanna post a correction for this tab? Suggest correction