Oops, an error
Loading. Please wait.

Invierno tab

by Rezaka
23 views 1 this week
no commentswrite comment
1 2 3 4 5
3 more votes to show rating
add to favorites
×
Save as Personal and add changes to this tab that will be seen only by you. Learn more ›
×
You can save this tab as Personal to edit and correct it or add notes. All changes will be seen only by you. Learn more »
launch autoscroll
font size
0
reset
how to read this tab
guitar tuner
edit
Autoscroll
slow
fast
+/-
esc
set tempo
stop
|-------------------------------------|
|-------------------------------------|
|-77767---------12-11-9---------------|
|-77767--99989---x-x--x--55545--77767-|
|-55545--99989--10-9--7--55545--77767-|
|--------77767-----------33323--55545-|

|---------------------------------|
|---------------------------------|
|-77767---------12-11-9-----------|
|-77767--99989---x-x--x--55545--7-|
|-55545--99989--10-9--7--55545--7-|
|--------77767-----------33323--5-|


D5            C#5      B5          G5
Justo cuando empezo acabo nuestro tiempo
D5           C#5        B5             G5
El silencio se enseño a mostrar lo que se enfermo
D5    G5*   B5             A#5
Y no puedo dejar de pensar e imaginando
D5    G5*     B5       A#5
y no quiero olvidar olvidarte

___________________________
 G5*=
|-----------------------|
|-----------------------|
|-----------------------|
|----55-5---55-5---55---|
|----55-5-5-55-5-5-55-5-|
|----33-3---33-3---33---|
P.M. .. .   .. .   ..
__________________________


|-------------------------|
|-------------------------|
|-7---6-7-9-7---6/7---7---|
|-7---x-x-x-x---x/x---x---| x2
|-5---4-5-7-5---4/5---5---|
|-------------------------|


D5           C#5       B5         G5
Voy a continuar decirtelo se nos rozo
D5              C#5        B5            G5
la experiencia nunca me sirvio frente a tus ojos
D5    G5*   B5             A#5
Y no puedo dejar de pensar e imaginando
D5    G5*     B5       A#5
y no quiero olvidar olvidarte


|-------------------|----|
|-------------------|----|
|-7---6-7-9-7-------|-7--|
|-7---x-x-x-x--(x3)-|-x--|
|-5---4-5-7-5-------|-5--|
|-------------------|----|


 B5              G5
|------------------|
|------------------|
|-7776667779997766-| x4
|------------------|
|------------------|
|------------------|


  D5    G5*   B5~~

_______________________________________

ahi termina!!
esta cancion esta bien paja, espero q les sirva
no olviden votarla porfavor!!!!!!

            
            
Suggest correction
Creating personal tab
Creating personal tab
You can edit any tab online and save it as your Personal.

You can edit, replace or remove any tab part or add personal notes – all changes will be seen only by you.

Personal tabs can be accessed anytime from any device, even offline.
Learn more »
Give kudos to tab author, rate the tab!
1 2 3 4 5
comments
print report bad tab
guest
Wanna post a correction for this tab? Suggest correction