Oops, an error
Loading. Please wait.

Devil Woman From Outer Space tab

version 1
version 1

Whole song

by Rezurex
1,652 views 1 this week
1 commentread comment
1 2 3 4 5
3 more votes to show rating
add to favorites
×
Save as Personal and add changes to this tab that will be seen only by you. Learn more ›
×
You can save this tab as Personal to edit and correct it or add notes. All changes will be seen only by you. Learn more »
launch autoscroll
font size
0
reset
how to read this tab
guitar tuner
edit
Autoscroll
slow
fast
+/-
esc
set tempo
stop
Author
Devil Woman From Outer Space by REZUREX

Tabbed by: Chris Parker (Chris_Parker)
Email: parkercomplex@gmail.com

Hey, I’m Chris Parker, and this is my 7th tab (I think). I’ve been working 
on a lot of stuff lately, and I decided I wanted to give this song a go 
because it’s such a rad song. Plus, so far every tab I have seen of this 
song completely blows, either because it’s incomplete or just plain 
incorrect. Any errors you may find in here are purely stylistic. I purposely 
do this so that everyone can add their own little kicks, like a good 
musician should. 


Make sure you check the playing notes at the end for more information on how 
to play this awesome song. I’m sorry this is really long for just a 2-3 
minute song, but I’m a damn thorough player and I want to encourage that in 
“tabbers” today, because a lot of people will just put up either too much 
information (like keys that explain notations that aren’t present in the 
tab) or not enough (Just a tab, no strategic spacing, etc.). You’ll notice 
that I really want you to make this song your own, so don’t hold back.


Anyway, have fun with this song! I had a great time in the past few hours, 
so without further ado, Ladies and Gentlemen, welcome to the show!

INTRO:


  A
||----5-------7—---9---|----5-------7—---9---|
||-/5-5----/5-5-/5-5---|-/5-5----/5-5-/5-5---|
||-/6------/6---/6-----|-/6------/6---/6-----|
||---------------------|---------------------|
||---------------------|---------------------|
||---------------------|---------------------|

  D                         A
|-----10------12-----14---|----5-------7—---9---|
|-/10-10--/10-10-/10-10---|-/5-5----/5-5-/5-5---|
|-/11-----/11----/11------|-/6------/6---/6-----|
|-------------------------|---------------------|
|-------------------------|---------------------|
|-------------------------|---------------------|
  
  B      Db   B     A
|---7-----9—--7-7br-5--|---5---5-------------------|
|--7------9---7-----5--|---5---5-------------------|
|-8------10---8-----6--|-7b—-7b--7brbrp5---5v------|
|----------------------|-----------------7-----7\--|
|----------------------|---------------------------|
|----------------------|---------------------------|
(rake the B)                     Well-





VERSE 1
 
Sample strumming rhythm pattern, use this with the chord changes above the lyrics::

 A
|---------------------------------|
|---------------------------------|
|---------------------------------|
|---------------------------------|
|-7-7-9-7-7-7-9-7-7-7-9-7-7-7-9-7-|
|-5-5-5-5-5-5-5-5-5-5-5-5-5-5-5-5-|
She’s a legend with a creature and a one armed beast,

|---------------------------------|
|---------------------------------|
|---------------------------------|
|---------------------------------|
|-7-7-9-7-7-7-9-7-7-7-9-7-7-7-9-7-|
|-5-5-5-5-5-5-5-5-5-5-5-5-5-5-5-5-|
Dancin’ in the graveyard, make me weak in the knees,

D
|----------------------------------|
|----------------------------------|
|----------------------------------|
|-7-7-9-7-7-7-9-7-7-7-9-7~~~~~7-7\-|
|-5-5-5-5-5-5-5-5-5-5-5-5~~~~~5-5\-|
|----------------------------------|
Nobody knows when she’s comin’ around,

A
|----------------------------------|
|----------------------------------|
|----------------------------------|
|----------------------------------|
|-7-7-9-7-7-7-9-7-7-7-9-7~~~~~7-7\-|
|-5-5-5-5-5-5-5-5-5-5-5-5~~~~~5-5\-|
Baby, don’t you know that she’s shakin’ this town

  E               D
|---------------------------------|
|---------------------------------|
|-9-9-9-9-9-9-9-9-7-7-7-7-7-7-7-7-|
|-9-9-9-9-9-9-9-9-7-7-7-7-7-7-7-7-|
|-7-7-7-7-7-7-7-7-5-5-5-5-5-5-5-5-|
|---------------------------------|
  Yeah, she’s crazy,

  A
|------------------------------|
|------------------------------|
|------------------------------|
|-7-7-7-7-7-7-7-7-7-7-7~~~~~~~~|
|-7-7-7-7-7-7-7-7-7-7-7~~~~~~~~|
|-5-5-5-5-5-5-5-5-5-5-5~~~~~~~~|
 that’s amazin’ to me,



CHORUS 1
(With another sample rhythm)

  A
|-5-5-5-5-5-5-5-5-5-5-5-5-5-5-5-5-|
|-5-5-5-5-5-5-5-5-5-5-5-5-5-5-5-5-|
|-6-6-6-6-6-6-6-6-6-6-6-6-6-6-6-6-|
|-7-7-7-7-7-7-7-7-7-7-7-7-7-7-7-7-|
|-7-7-7-7-7-7-7-7-7-7-7-7-7-7-7-7-|
|-5-5-5-5-5-5-5-5-5-5-5-5-5-5-5-5-|
Devil woman from outer space,

|-5-5-5-5-5-5-5-5-5-5-5-5-5-5-5-5-|
|-5-5-5-5-5-5-5-5-5-5-5-5-5-5-5-5-|
|-6-6-6-6-6-6-6-6-6-6-6-6-6-6-6-6-|
|-7-7-7-7-7-7-7-7-7-7-7-7-7-7-7-7-|
|-7-7-7-7-7-7-7-7-7-7-7-7-7-7-7-7-|
|-5-5-5-5-5-5-5-5-5-5-5-5-5-5-5-5-|
Devil woman from outer space,

  D
|-5~~~5-5-5-5-5-5-5-5-5-5-5-5-5-5-|
|-7~~~7-7-7-7-7-7-7-7-7-7-7-7-7-7-|
|-7~~~7-7-7-7-7-7-7-7-7-7-7-7-7-7-|
|-7~~~7-7-7-7-7-7-7-7-7-7-7-7-7-7-|
|-5~~~5-5-5-5-5-5-5-5-5-5-5-5-5-5-|
|---------------------------------|
Devil woman from outer space,

  A
|-5~~~5-5-5-5-5-5-5-5-5-5-5-5-5-5-|
|-5~~~5-5-5-5-5-5-5-5-5-5-5-5-5-5-|
|-6~~~6-6-6-6-6-6-6-6-6-6-6-6-6-6-|
|-7~~~7-7-7-7-7-7-7-7-7-7-7-7-7-7-|
|-7~~~7-7-7-7-7-7-7-7-7-7-7-7-7-7-|
|-5~~~5-5-5-5-5-5-5-5-5-5-5-5-5-5-|
Devil woman from-uh outer space,

  E                 D
|-7-7-7-7-7-7-7-7-7-5-5-5-5-5-5-5-|
|-9-9-9-9-9-9-9-9-9-7-7-7-7-7-7-7-|
|-9-9-9-9-9-9-9-9-9-7-7-7-7-7-7-7-|
|-9-9-9-9-9-9-9-9-9-7-7-7-7-7-7-7-|
|-7-7-7-7-7-7-7-7-7-5-5-5-5-5-5-5-|
|---------------------------------|
   Whoa-oh,          whoa-oh, 

A
|---------------------5-5-5-5~~~~~|
|---------------------5-5-5-5~~~~~|
|---------------------6-6-6-6~~~~~|
|---------------------7-7-7-7~~~~~|
|-7-7-9-7-7-7-7-9-7-7-7-7-7-7~~~~~|
|-5-5-5-5-5-5-5-5-5-5-5-5-5-5~~~~~|
 I get all over the place


VERSE 2

 A
She’s flying in her saucer and she’s lookin’ to hitch,

 
Suckin’ out my brains and she’s kissin’ my lips,

D
She’ll hunt you down when you drive in your car,

A
She’s the shakin-est lady from Venus and Mars,

E               D                  A
Yeah she’s crazy, that’s amazin’ to me.


CHORUS 2

 A
Devil woman from outer space,


Devil woman from outer space,

 D
Devil woman from outer space,

 A
Devil woman from outer space,

E        D        A
Whoa-oh, whoa-oh, I get all over the place


GUITAR SOLO

|-5-5-5-5-9-5-5-5-8-5-5-5-7-5-5-5-|
|-5-5-5-5-5-5-5-5-5-5-5-5-5-5-5-5-|
|---------------------------------|
|---------------------------------|
|---------------------------------|
|---------------------------------|


|-5-5-5-5-9-5-5-5-8-5-5-5-7-5-5-5-|
|-5-5-5-5-5-5-5-5-5-5-5-5-5-5-5-5-|
|---------------------------------|
|---------------------------------|
|---------------------------------|
|---------------------------------|


|-5-5-5-5-9-5-5-5-8-5-5-5-7-5-5-5-|
|-5-5-5-5-5-5-5-5-5-5-5-5-5-5-5-5-|
|---------------------------------|
|---------------------------------|
|---------------------------------|
|---------------------------------|


|-5-5-5-5-9-5-5-5-8-5-5-5-9-5-5-5-|
|-5-5-5-5-5-5-5-5-5-5-5-5-5-5-5-5-|
|---------------------------------|
|---------------------------------|
|---------------------------------|
|---------------------------------|


|-5--8-8--5--8-8--5--8-8--5--8-8--|
|-5--7-7--5--7-7--5--7-7--5--7-7--|
|---------------------------------|
|---------------------------------|
|---------------------------------|
|---------------------------------|
 bend the 7/8 double stops slightly

|---------------------------------|
|-5—-7-7--5—-7-7------------------|
|-5—-7-7--5—-7-7--5—7brbr5—-5-----|
|-------------------------7---7\--|
|---------------------------------|
|---------------------------------|


|---------5---5--------8p7p5----5—-5-|
|---------5---5-5h7h8--------8b-5—-5-|
|---5-7-7b—7b------------------------|
|-7----------------------------------|
|------------------------------------|
|------------------------------------|


|-8p7p5----------------------------------|
|-------8p7p5---------------------5v-----|
|-------------7p6p5-------7p6p5---5v-----|
|-------------------7p6p5-------7----7\--|
|----------------------------------------|
|----------------------------------------|

CHORUS 3

A
Devil woman from outer space,


Devil woman from outer space,

 D
Devil woman from outer space,

 A
Devil woman from outer space,

 E       D        A
Whoa-oh, whoa-oh, I get all over the place,


VERSE 3:

  A
She’s flying in her saucer and she’s lookin’ to hitch,


Suckin’ out my brains and she’s kissin’ my lips,

 D
She’ll hunt you down when you drive in your car,

 A
She’s the shakin-est lady from Venus and Mars,

 E              D                 A
Yeah she’s crazy, that’s amazin’ to me.

CHORUS 4

A
Devil woman from outer space,


Devil woman from outer space,

D
Devil woman from outer space,

A
Devil woman from outer space,

E       D         A
Whoa-oh, whoa-oh, I get all over the place,

OUTRO (CHORUS 5)

 A
Devil woman from outer space,


Devil woman from outer space,

 D
Devil woman from outer space,

A
Devil woman from outer space,

E        D        A
Whoa-oh, whoa-oh, I get all over the place…

|-5-5-5-5~~~~~~~||
|-5-5-5-5~~~~~~~||
|-6-6-6-6~~~~~~~||
|-7-7-7-7~~~~~~~||
|-7-7-7-7~~~~~~~||
|-5-5-5-5~~~~~~~||

PLAYING NOTES:

RHYTHM: 
For the verses and choruses, play whatever rhythms you like. 

INTRO: 

Use vibrato to your taste, I do a constant, subtle little warble after the 
bends; also, you don’t have to play the bottom note I put in the double 
stops, those are just there to round the sound out because I tend to use my 
fingers and pick/thumb and don’t worry about sliding into each mini phrase. 
Play it how you want!

VERSE: 

From what I can tell, the traditional blues shuffle riff is not played in 
the verse (you can barely make out the guitar at all, but you can again add 
it in for some flavor. I think, regardless how you style it, it should be 
palm-muted, or at the very least turn the volume down on your guitar, either 
manually with a knob (this may take practice if you’re not used to doing it 
quickly and accurately) or by using the pick-up selector if you have the 
option to do so (again, this could take practice if you 

Looking at the YouTube video, though, you can see he does straight 8th notes 
for most of the strumming bits, so I cannot stress enough that you can do 
whatever you want with your verse chords stylistically, even adding fills 
like this before the chorus, like I do:


  A
|-----------------------5-5---5~~|
|-----------------------5-5---5~~|
|---------------------7b----7b---|
|-7-7-7-7-7-7-7-7-7-7------------|
|-7-7-7-7-7-7-7-7-7-7------------|
|-5-5-5-5-5-5-5-5-5-5------------|
 that’s amazin’ to me,


CHORUS: 

Again, the blues shuffle riff is not in the chorus. You can put it in if 
you’d like, but it’s up to you. Personally, I’d rather play it by hitting 
the chord as a couple quick 16th notes then letting it hang like a whole 
note, then pick up the chord again right before the chord change. It would 
probably be good to vary your playing and kind of descending arpeggio 
through the chords every once and a while, too. If you were palm muting in 
the verse, stop for the chorus. Also, don’t take my sampe rhythm as gospel. 
Do whatever, let the chords ring out for a while, etc.

SOLO: 

Haha, okay, so I wouldn’t be surprised if I got a couple notes wrong 
(particularly in “measures” 7 and 8), but you should get the basic feel from 
what I put down. It’s all very “typical” rockabilly/psychobilly soloing 
material from bands like Bill Haley and His Comets and Stray Cats. Bonus 
points to whomever can tell me what songs specifically! You’d better get 
this, Austin…

LYRICS: 


Okay, so the only bit that I’m not sure of is the very last line of the
chorus, after the “whoa-oh’s”. That, and the first line of each verse. If 
anyone knows the correct lyrics, please let me know so I can make this tab 
as complete as possible. The internet brought me nothing, lets hope some 
fans do!

OUTRO
        It seems kind of pointless to say, but if you can, use that Bigsby 
(or whatever type of vibrato arm, I refuse to say whammy bar in this genre 
haha) to give that held A chord some flair. Everyone will love you better 
for it.


      Key:

/  = Slide Up
\  = Slide Down
b  = Bend
r  = Release
p  = Pull Off
h  = Hammer On
v  = Vibrato (if it’s bar vibrato, it’ll be above the tab)
~  = Let Ring
pm = Palm Mute

            
            
Suggest correction
Creating personal tab
Creating personal tab
You can edit any tab online and save it as your Personal.

You can edit, replace or remove any tab part or add personal notes – all changes will be seen only by you.

Personal tabs can be accessed anytime from any device, even offline.
Learn more »
Give kudos to tab author, rate the tab!
1 2 3 4 5
comments
print report bad tab
1 comment total.
0 reply
Sever_the_ties 10 Dec 21, 2009 02:08 PM

I think the last line of the chorus is "Rockin' all over the place."

guest
You may want to rate the tab now too:
select rating
Wanna post a correction for this tab? Suggest correction