Oops, an error
Loading. Please wait.

Our Love chords

version 1
version 1

Whole song

30,037 views 15 this week
3 commentsread comments
1 2 3 4 5
x 11
add to favorites
×
Save as Personal and add changes to this tab that will be seen only by you. Learn more ›
×
You can save this tab as Personal to edit and correct it or add notes. All changes will be seen only by you. Learn more »
launch autoscroll
font size
0
reset
transpose
0
reset
simplify chords
display chords
guitar tuner
edit
Autoscroll
slow
fast
+/-
esc
set tempo
stop
Author
Strumming
There is no strumming pattern for this song yet. and get +5 IQ
Rhett Miller - Our Love

Dsus4: xx0233
Dsus2: xx0230

The (Dsus2 D) in the verse is not in the song, but sounds nice when playing it. Do what 
want, what you think sounds best. =)


[Intro]
G

[Verse 1]
G                                                      C
Richard Wagner's letters to his lover Mathilde were a mess
                                                  Em
He should have quit before he had written the address
                      Dsus4  D       (Dsus2   D)      G
They made love on the mezzanine her husband was his friend
                                       C
Vienna in a fugue-state working on a thing
                                                    Em
That when he finished it took almost seven hours to sing
                       Dsus4     D      (Dsus2   D)      G
He still found time to write to her his heart-exploding words

[Chorus]
 G             Em               D
Our love surpassed our love so fast
                 C                  D       G
Our love's all wrong our love goes on and on
             Em                D                              C
Our love became our love by name when I wrote it to you in a song
              D       G
Our love goes on and on
 G    C   D    G            C D
Our love our love

[Verse 2]
Kafka in his letters to his lover Milena was alive
But he was waiting for a love that never would arrive
Their rendezvous was singular her husband was his friend
She is a living fire she is a reason to live
She is killing me burning only for him
I'll spend my whole life loving her my heart exploding words

---Chorus: With 2 repetitions on the last line

---Instrumental: Same chords as verse, with same timing

---Chorus: With 4 repetitions on the last line

[Outro]
G C D G
Timed as the last line in the chorus, repeat until end.


Tabbed by Alexander Strukelj

            
            
Suggest correction
Creating personal tab
Creating personal tab
You can edit any tab online and save it as your Personal.

You can edit, replace or remove any tab part or add personal notes – all changes will be seen only by you.

Personal tabs can be accessed anytime from any device, even offline.
Learn more »
comments
print report bad tab
3 comments total.
+1 reply
fightingfoo05 10 Jan 05, 2009 01:29 AM

good tab. anyone fancy taking a bash at the solos?

+1 reply
archonwarp 10 Feb 13, 2009 10:36 AM

it doesn't seem like Rhett plays the solos live, so I don't know how important it is for a solo player.

0 reply
pnkr0cker 2,033 Sep 24, 2009 08:18 PM

I just learned it. I'll try and text tab. here it goes

e|--------------------------------------------------------------|
B|--121512-15-15-1515-15-15-17\15-13-13-13131313-13-13b121012~--|
G|---0-0-0--0--0--0----0--0--0----------------------------------|
D|--------------------------------------------------------------|
A|--------------------------------------------------------------|
E|--------------------------------------------------------------|

e|-------------------------------------------|
B|-------------------------------------------|
G|-------------------------------------------| First part of solo
D|---------0-4br2--0--------0-5-0-4-0-2-0-4--|
A|-------02------2-0-2--00-------------------|
E|--12\-0------------------------------------|

e|-----10-------------------------------------------------------|
B|--12b---12brh10------12-----8----10-----12------17------13-12-|
G|---------------12-12b--12-7b-0-9b--0-11b--11/16b--16\12b------|
D|--------------------------------------------------------------|
A|--------------------------------------------------------------|
E|--------------------------------------------------------------|

e|-------------------------------------------------------|
B|--------131313\12--------------------------------------|
G|---------x-x-x-x--14\12--12-11--121212-111111-999-777--|
D|--------101010\9---x--x---x--x---x-x-x--x-x-x-xxx-xxx--|
A|------------------12\10--10--9--101010--9-9-9-777-555--|
E|--12\0-------------------------------------------------|

The only problem about understanding it is the rhythm of it. good luck! Might make a gp5 version... There's some stuff that is missed.

guest
You may want to rate the tab now too:
select rating
Wanna post a correction for this tab? Suggest correction