Oops, an error
Loading. Please wait.

Iluso tab

25 views 1 this week
no commentswrite comment
1 2 3 4 5
3 more votes to show rating
add to favorites
×
Save as Personal and add changes to this tab that will be seen only by you. Learn more ›
×
You can save this tab as Personal to edit and correct it or add notes. All changes will be seen only by you. Learn more »
launch autoscroll
font size
0
reset
how to read this tab
guitar tuner
edit
Autoscroll
slow
fast
+/-
esc
set tempo
stop
Am*= 2
        0
        2
        1
        0

Intro:
E----0-3--------------0---0-0----0-3-----------0-3---
A--------0---0-2---2------------------0----3---2-----0-

E----0-3----------0--0-0-----0-3-------------0
A--------0-0-2-2----------------0--3-2---2--

Era un jueves gris, llovía, pídeme un remis, decía,

E---0-3------------0----0-------------0-3---------
A-------0--3-2-0--------3-0--3-2------0---0-0

En el lobby de un hotel barato, viene de rentar su piel un rato,

E--0-3-0---------------------0---------0-0-0
A---------0-2-------------------0-2--2--

Con la algarabía del deber cumplido.

(LO MISMO)
Acrobacias del placer fingido,
Un orgasmo de alquiler, con ruidos,
Pone boca en su carmín escaso,
Arañando el adoquín sus pasos,

E-0-3-0-----------------------------3--------0---3---0-3-0
A---------0-2---------------------0-- 0---0--------0---------
D----------------------------------2-- 0---2--------0---------
G----------------------------------2-- 0---2--------0---------
B----------------------------------1-- 3 ---1--------3--------
A----------------------------------0---3---0--------3--------

Quien tiene algo para la nariz, pregunta.

Am          Dm                C
Podría ser de utilidad un pañuelo,
Am                G               Fmaj7
Disfracé de ingenuidad, mi anzuelo,

E---0-3------------0----0-------------0-3---------
A-------0--3-2-0--------3-0--3-2------0---0-0

Algo para no dormir, idiota si me das podrías pedir mi ropa.

E-0-3-0---------------------------------
A---------0-2---------------------0-0-0-0
D------------------------------------------
G------------------------------------------
B------------------------------------------
A------------------------------------------

Donde encuentro nieve pa´l desvelo, ahora,

Am                Am*
Creo que cien podría ajustar, te animas,
Am           Am*           E
Y de pestal cruzar, la esquina,
F        G       Am
Estoy solo como tu, fulana,
F            E               Am  G
Te invito a estrenar la luz, mañana,
F                             Am-G-F-RIFF
No te quiero pa´ desarreglar la cama.

RIFF:

E---0-3---------
A--------0-3-0-

CORO:

Am               F               G                    Am-RIFF
No es lo que haces con tu boca mi muñeca rota lo que solicito,
Am               F               G                  Am
Te puedes dejar la ropa, mi muñeca rota no la necesito,
Am               F               G                         Am-G
No es mojar la calentura, ahogar en tu cintura lo que ando buscando,
C              F             G                  E     Am
Es un poco de ternura para ver si cura lo que estoy pasando,
     G                E -G
Dijo si sin sonreír, camina.

E-------------------------0-0-0-
A-------0---0---2---2-----------

Dime si el sexo sin placer, te enciende,

E-----0-3-------------0---0--0
A---------0-0-3-2--2----------
Solo si el cliente es mujer, lo entiendes,

E-----0-3--------0-3-------0
A---------0-3-2------0---0--

Disimulando argumente esta claro,

E---0--------------0
A-----3-0-0-2--2

No te creas que me parece raro,

E----0-3--------
A--------0-3-2-
                                     Am-G
Cada quien su gusto y su pasión, le dije.

C         Dm         C
Te podría sujetar la mano,
Am               G              Fmaj7
Dame cien para empezar, y hablamos,
Am              G           F
Los busque en mi pantalón y nada,
Am        G                 Am -G
Fui debajo del colchón y estaban,
F                  E                    Am-G-F-RIFF
Se los di como quien compra un par, de alas.

CORO:

No es lo que haces con tu boca mi muñeca rota lo que solicito?

G                   E-G              Am
Miro el buró y sin sonreír, momento,

Am                Dm              Am
Si es tu ex la del buró no hay trato,
C              Dm        E
Con su mano señaló el retrato,
Am                  Dm         Am
La conoces pregunté, confuso,
C
Fue por mí quien te dejo, iluso.

Am-G
Am-F-E-G
E-Am-F (Así hasta que termina)

            
            
Suggest correction
Creating personal tab
Creating personal tab
You can edit any tab online and save it as your Personal.

You can edit, replace or remove any tab part or add personal notes – all changes will be seen only by you.

Personal tabs can be accessed anytime from any device, even offline.
Learn more »
Give kudos to tab author, rate the tab!
1 2 3 4 5
comments
print report bad tab
guest
Wanna post a correction for this tab? Suggest correction