Oops, an error
Loading. Please wait.

Por Que Es Tan Cruel El Amor tab

version 3
version 3

Whole song

Interactive

1,798 views 1 this week
no commentswrite comment
1 2 3 4 5
3 more votes to show rating
add to favorites
×
Save as Personal and add changes to this tab that will be seen only by you. Learn more ›
×
You can save this tab as Personal to edit and correct it or add notes. All changes will be seen only by you. Learn more »
launch autoscroll
font size
0
reset
how to read this tab
guitar tuner
edit
Autoscroll
slow
fast
+/-
esc
set tempo
stop
Author
          E-----------------------------------------------|
          A-----------------------------------------------|
          D-----------------------------------------------|
intro     G-----------------------------------------------|
          B--9-10-12--------------------------------------|
          E----------9-10h12--10-10-9-9-7-7/5-5h7/9-------|

          E----------------------------------------------|
          A----------------------------------------------|
          D----------------------------------------------|
          G----------------------------------------------|
          B--9-10-12-------------------------------------|
          E----------9-10h12--10-10-9-9-7-7-5-5----------|

          E----------------------------------------------|
          A----------------------------------------------|
          D----------------------------------------------|
 Req 1    G--8-8-11-7/8----------------------------------|
          B----------------------------------------------|
          E----------------------------------------------|

          E----------------------------------------------|
          A----------------------------------------------|
          D----------------------------------------------|
 Req 2    G----------------------------------------------|
          B--9-10h12-------------------------------------|
          E----------9-9/10-9----------------------------|


          E----------------------------------------------|
          A----------------------------------------------|
          D----------------------------------------------|
Req 3     G---10-10-10-9---------------------------------|
          B----------------------------------------------|
          E---10-10-10-9---------------------------------|


          E----------------------------------------------|
          A----------------------------------------------|
          D----------------------------------------------|
Req 4     G----------------------------------------------|
          B-9-10-12-10-9-9-7-5-5-------------------------|
          E----------------------------------------------|

          E----------------------------------------------|
          A----------------------------------------------|
          D----------------------------------------------|
Req 5     G----------------------------------------------|
          B-12-12-12-10-9h10-12/14-14--------------------|
          E----------------------------------------------|

          E----------------------------------------------|
          A----------------------------------------------|
          D----------------------------------------------|
 Req 6    G----------------------------------------------|
          B----------------------------------------------|
          E--12-12-12------------------------------------|


A
No se acaba el amor
                  F#m
Solo con decir adiós
                D
Hay que tener presente

Que el estar ausente
               A     D
No anula el recuerdo
          F#m      D
Ni compra el olvido    Req 1
              E7
Ni nos borra del mapa.

A
El que tu no estés   Req 2
                F#m
No te aparta de mi
                D
Entre menos te tengo

Mas te recuerdo
        A          D
Aunque quiera olvidarte
         G---10-10-10-9-|
         B--------------|
         E---10-10-10-9-|
            F#m   D
Estas en mi mente  Req 1
         E7
Y me pregunto mil veces.

                  A           A/C#m
¿Por que es tan cruel el amor?
           C#m
Que no me deja olvidar Req 4
         D
Que me prohíbe pensar
       E7
Que me ata y desata
   C#m                F#m
Y luego de a poco me mata
           D                      E7
me bota, levanta y me vuelve a tirar

                  A           A/C#m
¿Por que es tan cruel el amor?
   C#m
Que no me deja olvidar  Req 4
        D
Porque aunque tu ya no estés
           E7
Se mete en mi sangre
   C#m                 F#m
Y se va de rincón en rincón
   D
Arañándome el alma
      E7
Y rasgando el corazón
                  A
¿Por que es tan cruel el amor?

          E----------------------------------------------------|
          A----------------------------------------------------|
          D----------------------------------------------------|
intro     G----------------------------------------------------|
          B--9-10-12-------------------------------------------|
          E----------9-10h12--10-10-9-9-7-7/5-5h7/9--10-10-9-9-|

          E----------------------------------------------|
          A----------------------------------------------|
          D----------------------------------------------|
          G----------------------------------------------|
          B--9-10-12-------------------------------------|
          E----------9-10h12--10-10-9-9-7-7-5-5----------|


A
No se acaba el amor
               F#m
Solo porque no estas
                D
No se puede borrar

Así por así,
               A  D
nuestra historia
         F#m      D
Seria matar la memoria  Req 1
          E7
Y quemar nuestras glorias

                  A           A/C#m
¿Por que es tan cruel el amor?
           C#m
Que no me deja olvidar  Req 4
         D
Que me prohíbe pensar
       E7
Que me ata y desata
   C#m                F#m
Y luego de a poco me mata
           D                      E7
me bota, levanta y me vuelve a tirar   Req 6

                  A           A/C#m
¿Por que es tan cruel el amor?
   C#m
Que no me deja olvidar  Req 5
        D
Porque aunque tu ya no estés
           E7
Se mete en mi sangre
   C#m                 F#m
Y se va de rincón en rincón
   D
Arañándome el alma
      E7
Y rasgando el corazón
                  A
¿Por que es tan cruel el amor?

          E----------------------------------------------------|
          A----------------------------------------------------|
          D----------------------------------------------------|
intro     G----------------------------------------------------|
          B--9-10-12-------------------------------------------|
          E----------9-10h12--10-10-9-9-7-7/5-5h7/9--10-10-9-9-|

          E----------------------------------------------|
          A----------------------------------------------|
          D----------------------------------------------|
          G----------------------------------------------|
          B--9-10-12-------------------------------------|
          E----------9-10h12--10-10-9-9-7-7-5-5----------|

            
            
Suggest correction
Creating personal tab
Creating personal tab
You can edit any tab online and save it as your Personal.

You can edit, replace or remove any tab part or add personal notes – all changes will be seen only by you.

Personal tabs can be accessed anytime from any device, even offline.
Learn more »
Give kudos to tab author, rate the tab!
1 2 3 4 5
comments
print report bad tab
guest
You may want to rate the tab now too:
select rating
Wanna post a correction for this tab? Suggest correction