Oops, an error
Loading. Please wait.

Que Nadie Vea tab

94 views 3 this week
no commentswrite comment
1 2 3 4 5
2 more votes to show rating
add to favorites
×
Save as Personal and add changes to this tab that will be seen only by you. Learn more ›
×
You can save this tab as Personal to edit and correct it or add notes. All changes will be seen only by you. Learn more »
launch autoscroll
font size
0
reset
how to read this tab
guitar tuner
edit
Autoscroll
slow
fast
+/-
esc
set tempo
stop
Esta Cancion esta muy bien echa, no cabe duda que Arjona si
investgo sobre el tema, no siempre es de este modo en el que
sucede la vida de un gay,pero en muchos casos esto es identico,
de cualqueir modo, quize enviar esta tablatura porque la cancion
vale mucho la pena y bueno le dedico la transcripcion a mi amigo
Miguel Angel que fue el que me la recomendo

La cancion en si es sencilla, solo traten de encajar tiempos y veran
 que el rango de error es muy pero muy bajo y dice asi...
 por cierto, yo la adapte a una guitarra, pero originalmente es
 en dos, si quieren separarla les sera muy facil

capo en el 4to traste
intro:
e|-----0-----0---------------0-------0---------------0--
b|----1----3---------3-------0-1---3---------3-------0--
g|---2---2-----4---5-------2-----2-----4---5-------2----
D|?-2------------5-------3---------------5-------3------
A|-0---------------------------0------------------------
E|-------------3-------1---------------3-------1--------

verso:
e|-----------------------0--------------0-----------------------------0----
b|-----1-----------------0-----0h1----------------3h5-3-1-1---0h1----------
g|-----2-------4-------2------------4---------2-2-----------------4--------
D|?--2---------5-----3-------2--------5-----3---------------2-------5------
A|-0---------5-------------0------------------------------0----------------
E|---------3-------1----------------3-----1-----------------------3--------

e|-------------0--------------0---------------------------------------0-
b|-------0------------0h1-------------0-1---1h3-3h5-0---0h1-1h3-----0---
g|-2---2---2--------------4---------2-----2-----------0---------2-------
D|?--3-------3------2-------5-----3-------------------------------3-----
A|----------------0---------------------0-------------------------------
E|-1----------------------3-----1-------------------3-----------1-------

e|--------------0-----------0-------------------------0-
b|------1-3-5h7-----0h1----------------------0h1--------
g|--2-4-----------2-----4----------0h2-0----------4-----
D|?-----------------------5------3---------2--------5---
A|--------------0------------------------0--------------
E|----------------------3------1------------------3-----

e|----------------------------------0---3-3-3h1-1-1h0---------
b|--------------------------0h1-----------------------5-5-3-3-
g|------------------------------4-----------------------------
D|----5-0h2---------------2-------5---------------------------
A|--3-------5-3-3h5-3-0-0-------------------------------------
E|1-----------------------------3-----1-----------------------

e|----------0----------------------------------------0--
b|----1-----0-----0----1---1h3-3h5-0---0h1-1h3-----0-0--
g|----2-4---------0-0----2-----------0---------2--------
D|--2-----5-----3--------------------------------3------
A|0--------------------0--------------------------------
E|------3-----1--------------------3-----------1--------

coro:

esta parte cabe hacer una aclaracion, la guitarra es muy escasa,
asi que traten de llenar si quieren con un rasgeo
yo trate de ser fiel a la cancion, pero suena mejor si llenan
espacios dejen sonar los acordes que les pongo, traten de encajarlos
y veran que si queda bien

e|-0-2------------3-----------0-1---------0---0-0-0----------
b|-1-3-----3--------------3---1-1-------1-3-----------1------
g|-0-2---0---0--0---0---0---0-2-2-0-2-4---1-2-------4-2-4-2--
D|-2-0------------------------2-3---------2-3-------5-2-5-3--
A|-3--------------------------0-3---------2-3-------5-0-5-3--
E|-----3-------3------3---------1---------0-1-------3---3-1--

lo que falta:
como veran, la guitarra ya resulata mas escasa en lo que sigue
de la cancion, tienen de dos, o ocupan lo del primer verso,
o, puedes ocupar las pisadas y rasgear o arpegear, yo ocupo esto,
no va en la cancion, pero suena bien

e|-----------------------------
b|--1---1----------------------
g|----2---2-4---4---2---2------
D|--2---2-----5---5---3---3----
A|----0---0-5---5---3---3------
E|-----------3---3---1---1-----

pues por mi parte es todo, veran que suena muy bien esto, cuidense
y por si tienendudas, comentarios, correcciones o quieren invitarme
a algun lado jeje, les dejo mi correo elchaviz@

            
            
Suggest correction
Creating personal tab
Creating personal tab
You can edit any tab online and save it as your Personal.

You can edit, replace or remove any tab part or add personal notes – all changes will be seen only by you.

Personal tabs can be accessed anytime from any device, even offline.
Learn more »
Give kudos to tab author, rate the tab!
1 2 3 4 5
comments
print report bad tab
guest
Wanna post a correction for this tab? Suggest correction