Oops, an error
Loading. Please wait.

Te Acuerdas De Mi tab

91 views 9 this week
no commentswrite comment
1 2 3 4 5
2 more votes to show rating
add to favorites
×
Save as Personal and add changes to this tab that will be seen only by you. Learn more ›
×
You can save this tab as Personal to edit and correct it or add notes. All changes will be seen only by you. Learn more »
launch autoscroll
font size
0
reset
how to read this tab
guitar tuner
edit
Autoscroll
slow
fast
+/-
esc
set tempo
stop
UNA CANCION MAS TRANSCRITA Y DEDICADA A LA MUJER MAS HERMOSA DEL PLANETA, 
SABES QUE TE QUIERO. ROSALINDA.
ATTE: PATO


E||--14--12--10--17--|--------------12--|--14--12----------|----------15--17--|
B||------------------|--17------14------|----------15------|--12--15----------|
G||------------------|------14----------|--------------14--|------------------|
D||--12--------------|------------------|------------------|------------------|
A||------------------|--16--------------|--15--------------|--14--------------|
E||------------------|------------------|------------------|------------------|


                                                                         
--18--17--15------|--------------10--|--------------12--|--10--9--7--5--|
--------------15--|------------------|------------------|---------------|
------------------|--15--14--12------|--12--11--12------|---------------|
------------------|------------------|------------------|---------------|
------------------|------------------|--12--------------|--0------------|
--18--------------|------------------|------------------|---------------|


                                                                       
--7--4--5--7--|--0--7--12------|--10-----------|--9--------|----------|
--------------|------------12--|---------3-----|-----------|----------|
--------------|----------------|------0-----0--|--6--------|----------|
--------------|--6-------------|---------------|--7--------|----------|
--------------|----------------|--0------------|-----------|----------|
--4-----------|----------------|---------------|-----------|----------|


                                                                               
--0---------|------------|------------|--------------|--3---------|--5--------|
--10--------|--10--------|--10--------|--10----------|--10--------|--8--------|
--11--------|--11--------|--11--------|--11----------|--7---------|--7--------|
--12--------|--12--------|--12--------|--12----------|--9---------|--9--------|
------------|------------|------------|--------------|--10--------|-----------|
--10--------|------------|------------|----------10--|--3---------|-----------|


                                                                               
-----------|-------------|--0---------|--0---------|------------|-------------|
--8--------|--8------7-5-|--7---------|--7---------|--7---------|--7----------|
--7--------|--7----------|--7---------|--7---------|--7---------|--7----------|
--9--------|--9----------|--0----7----|-------7----|-------7----|-------7--0--|
-----------|-------------|------------|------------|------------|-------------|
-----------|-------------|------------|------------|------------|-------------|


                                                                     
--0----------|--0-----------|--0---------|--0---------|-------------|
--0----------|--0-----------|--2---------|--2---------|--0----------|
--11----0----|--11----0-----|--3---------|--3---------|--7----------|
--11---------|--11----------|--4----4----|-------4----|--11---------|
-------------|--------------|--1---------|------------|--------9----|
--9----------|-----------7--|------------|------------|--7----------|


                                                                                
-------------|--2---------|--5---------|------------|-------------|------------|
--0----------|--2---------|------------|--0---------|--0----------|--0---------|
--7----------|------------|--6---------|-------2----|--2----------|------------|
-------4-----|-------4----|-------7----|------------|-------0-----|-------2----|
----------2--|--0---------|------------|------------|-------------|------------|
-------------|------------|------------|--3---------|----------3--|--4---------|


                                                                           
--0---------|------------|------------|-----------|----------|--5---------|
--0---------|--3---------|--3---------|--2--------|----------|--5---------|
------------|--0---------|--0---------|--2--------|----------|--7----7----|
-------2----|-------2----|-------2----|-----------|----------|--0---------|
------------|--0---------|------------|--0--------|----------|------------|
------------|------------|------------|-----------|----------|------------|


                                                                               
--5---------|--5---------|--5----------|--5---------|--5---------|--3---------|
--5---------|--7---------|--7----------|--3----0----|--3----0----|--3----0----|
------------|--7---------|--7----------|------------|------------|------------|
-------7----|-------7----|-------7-----|------------|------------|------------|
------------|------------|--5-------5--|------------|------------|------------|
------------|------------|-------------|--3---------|------------|------------|


                                                                               
--3----0----|--0---------|--0---------|--2---------|--2----------|--2---------|
--3---------|--7---------|--7---------|--3---------|--3----------|--0---------|
-------2----|-------2----|-------2----|-------2----|-------2-----|-------0----|
------------|--0---------|------------|------------|----------0--|------------|
-------4----|------------|------------|------------|-------------|--4---------|
-------5----|------------|------------|------------|-------------|------------|


                                                                      
--2----------|--2----------|--0---------|-------------|--------------|
--0----------|--0----------|------------|--0----------|--0-----------|
-------0-----|-------------|--3---------|--7----------|--7-----------|
-------------|-------4-----|-------4----|--11---------|--11----------|
----------2--|-------------|--1---------|--------9----|--------9-----|
-------------|--2-------4--|------------|--7----------|-----------7--|


                                                                               
------------|--5---------|------------|-------------|------------|--7---------|
--7---------|--3---------|--0---------|--0----0--2--|--3---------|------------|
--6---------|--6---------|--0---------|--0----------|--1---------|--7---------|
-------4----|-------4----|-------0----|-------0-----|-------2----|--6---------|
--0---------|------------|------------|-------------|------------|-------7----|
------------|------------|--3---------|-------------|--4---------|------------|


                                                                            
------------|-------------|--0--------|--0------0--|--0--------|-----------|
-------0----|-------0-----|--2--------|--2---------|--7--------|--7--------|
--7---------|--7----------|--2--------|--2---------|--7--------|--7--------|
--7---------|--7----------|--2--------|--2---------|--7--------|--7--------|
--7---------|--7-------7--|--0--------|------------|--5--------|--5--------|
--5---------|-------------|-----------|------------|-----------|-----------|


                                                                         
--0--------|--5--------|-----------|------------|-----------|--0--------|
-----------|--5--------|--3--------|--3------3--|--2--------|--2--------|
--6--------|--6--------|--4--------|--4---------|--2--------|--2--------|
--7--------|--7--------|--4--------|--4---------|--4--------|--4--------|
--7--------|--7--------|--2--------|--2---------|--7--------|-----------|
-----------|-----------|-----------|------------|--2--------|--2--------|


                                                                              
-----------|-------------|------------|--------------|-----------|-----------|
--0--------|--0----------|------------|-----------3--|--2--------|--2--------|
--0--------|--2----------|------------|--------2-----|--2--------|--3--------|
--0--------|--5----------|--4---------|--0--4--------|--2--------|--4--------|
-----------|--5----------|--5------0--|--0-----------|--0--------|--1--------|
--3--------|--3----2--0--|--5---------|--------------|-----------|-----------|


                                                                             
-----------|--2----5----|--7--------|-------------|-----------|-------2--3--|
--3--------|------------|-----------|--0----------|-----------|-------3--5--|
--4--------|------------|--4--------|--2----2--0--|-----------|----------0--|
--4--------|--4----7----|--7--------|--0----------|--4--------|-------4-----|
--2--------|--0---------|-----------|-------------|--5--------|----5--------|
-----------|------------|--3--------|--3----------|-----------|-------------|


                                                                    
--0-----0--0--|--0-----10----|--7---------|--7--------|--7---------|
--10----7--8--|--10----7-----|--8---------|--8--------|--5---------|
--11----------|--11----7-----|--7---------|--7--------|------------|
--0-----7-----|--12----------|--5---------|--5--------|--6---------|
--12----------|--------------|------------|-----------|------------|
--------------|--10----2-----|--3------3--|--3--------|--4------4--|


                                                                       
--7--9--10--9--|--5---------|--9---------|--10---------|--10----------|
--5------------|--5---------|--11--------|--12---------|--12--14------|
---------------|------------|--11--------|--11---------|--11--14------|
--6------------|--7---------|--8---------|--9----------|--9---16------|
---------------|--0------0--|------------|-------------|------0-------|
--4------------|------------|--6---------|--7-------7--|------17------|


                                                                   
--7---------|--7--------|--7---------|--7----9--10--|--9----------|
--8---------|--8--------|--5---------|--5-----------|--10---------|
--7---------|--7--------|------------|--------------|--9----------|
--5---------|--5--------|--6---------|--6-----------|--7----------|
------------|-----------|------------|--------------|--0-------0--|
--3------3--|--3--------|--4------4--|--4-----------|-------------|


                                                                   
--9----------|--10---------|------------|------------|------------|
--11---------|--12---------|------------|--0---------|--0---------|
--9----------|--7-------7--|-----6------|--0---------|--0---------|
--8----------|--9-------9--|-----7------|--0---------|--0---------|
-------------|----------9--|-----7------|------------|------------|
--6-------6--|--7----------|--7--5------|--3------3--|--3------4--|


                                                                            
-------------|---------0--|------------|------------|-----------|----------|
--0----0--2--|--0---------|--3---------|--3---------|--2--------|----------|
--1----------|--7---------|--0---------|--0---------|--2--------|----------|
--2----------|--6---------|-------2----|-------2----|-----------|----------|
-------------|--7---------|--0---------|--0---------|--0--------|----------|
--4----------|--4---------|------------|------------|-----------|----------|


                                                                             
------------|------------|-----------|---------0--|------------|------------|
----0-------|------2--3--|--0--------|--3---------|--3---------|--3---------|
--2---------|------------|--1--------|------------|--0---------|--0---------|
--5---------|------------|--2--------|------------|-------2----|-------2----|
--5---------|------------|-----------|------------|--0---------|------------|
--3---------|------------|--4--------|------------|------------|------------|


                                                                              
-----------|----------|--14----------10--|--12--0------9--|--10----------10--|
--2--------|----------|----------10------|---------10-----|----------10------|
--0--------|----------|------11----------|----------------|------11----------|
--2--------|----------|--12--------------|--11------------|--10--------------|
-----------|----------|------------------|----------------|------------------|
-----------|----------|------------------|----------------|------------------|


                                                                               
--10--------10--|------------|----------|--14--12--10--17--|--------------12--|
---------8------|----8-------|----------|------------------|--17------14------|
------7---------|--7---------|----------|------------------|------14----------|
--9-------------|--8---------|----------|--12--------------|------------------|
----------------|------------|----------|------------------|--16--------------|
----------------|------------|----------|------------------|------------------|


                                                                          
--14------------|----------15--17--|--18--17--15------|--------------10--|
------15--------|--12--15----------|--------------15--|------------------|
------------14--|------------------|------------------|--15--14--12------|
----------------|------------------|------------------|------------------|
--15------------|--14--------------|------------------|------------------|
----------------|------------------|--18--------------|------------------|


                                                                  
--------------12--|--10--9--7--5--|--4--5--7--0--|--7--0--12--0--|
------------------|---------------|--------------|---------------|
--12--11--12------|---------------|--------------|---------------|
------------------|---------------|--------------|---------------|
--12--------------|--0------------|--------------|--7------------|
------------------|---------------|--4-----------|---------------|


                                                                              
--10-----------|--9--------|----------|--2--------|--2----------|--0---------|
---------3-----|-----------|----------|-----------|-------------|------------|
------0-----0--|--6--------|----------|--2--------|--2----2-----|--2----2----|
---------------|--7--------|----------|--0--------|----------0--|------------|
--0------------|-----------|----------|-----------|-------------|--4---------|
---------------|-----------|----------|-----------|-------------|------------|


                                                                                
--0----------|-----------|-------------|-------------|-------0----|--2---------|
-------------|--3--------|--3----------|--3----------|--3---------|------------|
--2----2-----|--0--------|--0----0-----|--0----0-----|--0----2----|--2----2----|
-------------|-----------|-------------|-------------|------------|--0---------|
----------4--|--2--------|----------2--|----------2--|-------4----|------------|
-------------|-----------|-------------|-------------|------------|------------|


                                                                  
--2---------|--0---------|-------------|-----------|--2----2--3--|
------------|------------|--3----------|--0--------|--0----------|
--2----2----|--2----2----|--2----2-----|--0--------|-------------|
------------|------------|----------0--|-----------|-------------|
------------|------------|-------------|--4--------|-------------|
------------|------------|-------------|-----------|-------------|


                                                                                
--2-----------|--0----------|------------|-------------|--0--------|--2--------|
--0-----------|-------------|--0---------|--0----------|-----------|--2--------|
--3-----------|--6----------|--7---------|--7----------|--6--------|-----------|
--------------|--4----4-----|--11--------|-------------|-----------|-----------|
------------0-|-------------|------------|-------------|--0--------|--0--------|
--2----2--4---|--6-------6--|--7---------|--7------7-6-|-----------|-----------|


                                                                            
-----------|------------|------------|-----------|------------|-------5----|
--0--------|--0------2--|--3---------|--3--------|-------0----|--3---------|
--0--------|--0---------|--4---------|--4--------|--2---------|------------|
-----------|------------|------------|-----------|------------|--2---------|
-----------|------------|------------|-----------|--0---------|------------|
--3--------|--3---------|-------4----|--4--------|------------|------------|


                                                                             
-----------|----------|--2---------|--2--------2--|--0----------|--5--------|
--2--------|----------|------------|--------3-----|----------2--|-----------|
-----------|----------|--2---------|-----2--------|-------2-----|-----------|
--2--------|----------|--0------0--|--------------|-------------|-----------|
--0--------|----------|------------|--------------|--4----------|--4--------|
-----------|----------|------------|--------------|-------------|-----------|


                                                                                
------------|---------5--|--3--------|--3----2--0--|--2---------|--2--------2--|
--3---------|--3---------|--3--------|--3----------|------------|--------3-----|
--0---------|--0---------|--0--------|--0----------|--2------2--|--2--2--------|
------------|------------|-----------|-------------|--0---------|--0-----------|
--2------2--|--2---------|--2--------|--2----1-----|--0---------|--------------|
------------|------------|-----------|-------------|------------|--------------|


                                                                                
--0----------|--0----2----|------------|--2------3--|--2----------|--0---------|
----------3--|------------|--0---------|--0---------|--0----------|------------|
--2----2-----|--2----2----|--6---------|--0---------|-------------|--3---------|
--0----------|--0----0----|--5---------|------------|--4----------|--4---------|
-------------|------------|--4------4--|--4---------|--4----------|--1------1--|
-------------|------------|------------|------------|-------2--4--|------------|


                                                                          
-----------|-----------|--2--------|--5---------|--7--------|---------7--|
--3--------|--3--------|--2--------|--7---------|--3--------|------------|
--6--------|--4--------|-----------|--6---------|-----------|---------7--|
--4--------|--4--------|--4--------|--4---------|--5--------|------------|
--2--------|-----------|--0--------|------------|-----------|------------|
-----------|-----------|-----------|---------3--|--3--------|--3------4--|


                                                                    
--7--------|--7----9--10--|--10---------|-------10----|--9---------|
-----------|--------------|-------------|--8----8-----|--5---------|
--7--------|--7-----------|--7-----7----|-------7-----|--6---------|
--6--------|--------------|--7----------|-------7-----|--7---------|
-----------|--------------|--0----------|-------------|--0------0--|
--4--------|--4-----------|-------------|-------------|------------|


                                                                     
--5------3--|--2---------|--2--------2--|--0--------0--|--5---------|
--5---------|------------|--------3-----|--------2-----|--5---------|
---------2--|--2---------|-----2--------|-----2--------|------------|
------------|--0------0--|--0-----------|--------------|--7---------|
------------|------------|--------------|--4-----------|------------|
------------|------------|--------------|--------------|---------7--|


                                                                     
------------|--------------|-------------|--0----------|------------|
------------|--------------|--2----------|--2----------|--3---------|
--7---------|--7--------7--|--2----------|--2----------|--4---------|
------------|--------------|--2----2-----|--2----2-----|--5---------|
--9---------|--9-----9-----|-------------|-------------|------------|
--7------7--|-----7--------|--2-------2--|----------2--|--3------3--|


                                                                                
--------------|-----------|-------------|------------|------------|---------0--|
--3-----3-----|-----------|-------3-----|--2---------|--2---------|--3---------|
--4-----2--0--|--2--------|--2----2-----|--2---------|------------|------------|
--7-----4--2--|--4--------|--4----4-----|--2---------|--4---------|--4---------|
--10----------|--5--------|--5----5--0--|--0------1--|--1------2--|--2---------|
--3-----2--0--|-----------|-------------|------------|------------|------------|


                                                                                
--2----5-----|--7---------|------------|-----------|-------2--3--|--2----2--3--|
--3----7-----|--8---------|--3----3----|--3--------|----------0--|----------5--|
-------------|--7---------|--2----0----|-----------|-------2-----|--2----------|
--4----------|--5---------|--5---------|--4--------|----0--------|--0----------|
--0-------0--|------------|------------|--5--------|-------------|-------------|
-------------|--3------3--|--3---------|-----------|-------------|-------------|


                                                                     
--5-----10-----|--7---------|--7--------|--7------9--|--10------12--|
--3--2--0------|--8---------|--8--------|--5---------|--5-----------|
--7-----7------|--7---------|--7--------|------------|--------------|
--0---------7--|--5---------|--5--------|--6---------|--6-----------|
---------------|------------|-----------|------------|--------------|
--2------------|--3------3--|--3--------|--4------4--|--4-----------|


                                                                     
--9----------|--9---------|--10---------|--10----------|--7---------|
--10---------|--11--------|--12---------|--12--14------|--8---------|
--9----------|--11--------|--11---------|--11--14------|--7---------|
--7----------|--8---------|--9----------|--9---16------|--5---------|
--0-------0--|------------|-------------|------0-------|------------|
-------------|--6---------|--7-------7--|------17------|--3------3--|


                                                                    
--7--------|--7------9--|--10------12--|--9----------|--9----------|
--8--------|--5---------|--5-----------|--10---------|--11---------|
--7--------|------------|--------------|--9----------|--9----------|
--5--------|--6---------|--6-----------|--7----------|--8----------|
-----------|------------|--------------|--0-------0--|-------------|
--3--------|--4------4--|--4-----------|-------------|--6-------6--|


                                                                     
--10---------|------------|--7---------|--7--9--10--10--|-----------|
--12---------|------------|--0---------|----------------|--0--------|
--7-------7--|-----6------|------------|--4-------------|-----------|
--9-------9--|-----7------|--5---------|--5-------------|--6--------|
----------9--|-----7------|--5---------|--5-------------|--7--------|
--7----------|--7--5------|--3------3--|--3---------4---|--4--------|


                                                                            
-----------|------------|------------|-----------|----------|--------------|
--0--------|--3---------|--3---------|--2--------|----------|----0---------|
-----------|--0---------|--0---------|--2--------|----------|--2-----------|
--6--------|-------2----|-------2----|-----------|----------|--5------0----|
--7--------|--0---------|--0---------|--0--------|----------|--5-----------|
--4--------|------------|------------|-----------|----------|--3-----------|


                                                                               
------------|-------------|----------0--|------------|------------|-----------|
--0---------|--0-------2--|--0----------|--3---------|--3---------|--2--------|
--0---------|--1----------|--7----------|--0---------|--0---------|--0--------|
--0----0----|--2----2-----|--6----------|-------2----|-------2----|--2--------|
------------|-------------|--7----7-----|--0---------|------------|-----------|
------------|--4----------|-------------|------------|------------|-----------|


                                                                  
----------|--14----------10--|--12--0------9--|--10----------10--|
----------|----------10------|---------10-----|----------10------|
----------|------11----------|----------------|------11----------|
----------|--12--------------|--11------------|--10--------------|
----------|------------------|----------------|------------------|
----------|------------------|----------------|------------------|


                                                                       
--10--------10--|------------|----------|--2--0-----5--|--0--------0--|
---------8------|----8-------|----------|--------3-----|--------2-----|
------7---------|--7---------|----------|--------------|-----2--------|
--9-------------|--8---------|----------|--0-----------|--------------|
----------------|------------|----------|--------------|--4-----------|
----------------|------------|----------|--------------|--------------|


                                                                              
--2----------|--------3--5--|--6--5--3-----|--------------|-------------|---||
-----3-------|--0--3--------|-----------3--|-----------3--|-------------|---||
----------2--|--------------|--------------|--3--2--0-----|--7----------|---||
-------------|--------------|--------------|--------------|--0-4--------|---||
--3----------|--2-----------|--------------|--0-----------|--7---7------|---||
-------------|--------------|--6-----------|--------------|-------------|---||

            
            
Suggest correction
Creating personal tab
Creating personal tab
You can edit any tab online and save it as your Personal.

You can edit, replace or remove any tab part or add personal notes – all changes will be seen only by you.

Personal tabs can be accessed anytime from any device, even offline.
Learn more »
Give kudos to tab author, rate the tab!
1 2 3 4 5
comments
print report bad tab
guest
Wanna post a correction for this tab? Suggest correction