Oops, an error
Loading. Please wait.

Vuelo bass

19 views 1 this week
no commentswrite comment
1 2 3 4 5
3 more votes to show rating
add to favorites
×
Save as Personal and add changes to this tab that will be seen only by you. Learn more ›
×
You can save this tab as Personal to edit and correct it or add notes. All changes will be seen only by you. Learn more »
launch autoscroll
font size
0
reset
guitar tuner
edit
Autoscroll
slow
fast
+/-
esc
set tempo
stop
ahí está mi primera colaboración... a ver que tal...
buena rola el bajo empieza en el coro y solo es
de seguir el ritmo de la canción

Intro (piano) Sol Do Sol Do

Sol                        Re
Ella camina y pasa yo me detengo y veo
                 re-               Do
ella en zapatos negros yo en mis gafas de miope
           Sol     Re    re-
perfil perfecto aerodinamico
             Do           do-
cortando el aire en cada paso

mi-              Re                La
Bendito sea el milagro que hoy nos hace coincidir...
La              Re
tartamudea la acera
Si7               mi-      Re  La
con tus tacos de aguja al caminar
           Sol    Re     re-          Do  do-
como has podido ir y venir por tantos años
   Sol
sin mi...

Coro

G-------------------------------------------------------
D-------------------------------------------------------
A------5---------------------------3----------------3--
E-0-3----3----2---2----1-----------------3-------------
   Sol        Re      re-          Do                do-
  Vuelo, al vuelo  detrás del huracán que hay en tu pelo


G---------------------------------------------------
D------------------------2-----------1--------------
A-----5---------------------------------------------
E-0-3----3--2---1-----------------------------------
    Sol     Re  re-   Do            do-
  vuelo, al vuelo  si coincidir es guerra y no consuelo

G----------------------
D-----------0------0---
A---5--5--------------3
E3-3-3--2-2---2-1-1--1-

G-------------------------------------------------------------------
D--------------------------------0----------------------------------
A----5------------------------------------------------------------3-
E-0-3-----------3------------2--------2-----------1-----------------
  Sol                           Re                re-             Do
  Ella camina y pasa yo me incorporo ella no me conoce yo me enamoro
G-------------------------------------------------------------------
D--------------------------0----------------------------------------
A-------------------------------------3-------------------3---------
E--------3--------2-----1----------------------------3------3-------
        Sol        Re    re-           Do            do-
  pretérito pluscuamperfecto de ser infiel con el futuro
G-------------------------------------------------------------------
D---2---------------------------------------------------------------
A-------------------5----------------4----------4------0-2-4--------
E-------------------------------------------------------------------
     mi-           Re               La
  despacio tras de ti me entrego a la persecución

G-------------------------------------------------------------------
D-------------------------------------------------------------------
A-4--------------------5--6-------------------7---------5-------4---
E-------------------------------------------------------------------
  La                  Re   Si7               mi-        Re      La
  De las huellas que dejas de lo que quieras darme en consignación
G-------------------------------------------------------------------
D-------------------------------------------------------------------
A--------------------------------------3------3---------------------
E-----------3------2-----1-----------------3-----3------------------
           Sol  Re     re-             Do do-   Sol
  como he podido ir y venir por tantos años sin ti...

  Sol        Re
  Vuelo, al vuelo
  re-            Do                do-
  detrás del huracán que hay en tu pelo
  Sol       Re  re-
  vuelo, al vuelo
  Do               do-              Sol
  si coincidir es guerra y no consuelo (aquí el bajo se mantiene en Sol)
G---------------------------------------------------------------------
D-2------------------------1------------------------------------------
A------------------------------------5-----------------------4--------
E---------------------------------------------------------------------
  mi-                mi-/mib          Sol                   La
  Se paro el reloj cuando te vi pasar vi mi carta astral tatuada en tu
cintura

G---------------------------------------------------------------------
D---------------------------------------------------------------------
A-------3--------------------------------5----------------------------
E-------3--------------------------------5----------------------------
     Do                                  Re             Re7
  yo no se si esto esa bien o mal yo no se que va a pasar tan solo...


  Vuelo, al vuelo
  detrás del huracán que hay en tu pelo
  vuelo, al vuelo
  si coincidir es guerra y no consuelo.

Ahí el final lo hace el piano.

            
            
Suggest correction
Creating personal tab
Creating personal tab
You can edit any tab online and save it as your Personal.

You can edit, replace or remove any tab part or add personal notes – all changes will be seen only by you.

Personal tabs can be accessed anytime from any device, even offline.
Learn more »
Give kudos to tab author, rate the tab!
1 2 3 4 5
comments
print report bad tab
guest
Wanna post a correction for this tab? Suggest correction