Oops, an error
Loading. Please wait.

Lo Que Necesito tab

version 3
version 3

Whole song

22 views 1 this week
no commentswrite comment
1 2 3 4 5
3 more votes to show rating
add to favorites
×
Save as Personal and add changes to this tab that will be seen only by you. Learn more ›
×
You can save this tab as Personal to edit and correct it or add notes. All changes will be seen only by you. Learn more »
launch autoscroll
font size
0
reset
how to read this tab
guitar tuner
edit
Autoscroll
slow
fast
+/-
esc
set tempo
stop
Intro: //A# Gm F A#//

Verso:

A#                 Gm                     F      A#
 //Lo que necesito    es tenerte siempre junto a mi
                       Gm                  F     D#
   si no estas conmigo    no tengo razon para vivir
                       F              Gm          D#
   si no estas conmigo   dia y noche siempre buscare
           F              Cm              F
   oir tu voz (en mi corazon) sentir tu amor.//

Coro:
 Gm                       F                        D#
    si tu vas en mi barca   no importa la tormenta
                    F       Gm  F
    tu mano siempre me ayudara
 Gm                       F
    saber que vas conmigo   me hace descanzar
 D#               F        Gm
    aun sobre el mar caminare
 Cm                F        A#
    aun sobre las nubes volare.

(Verso y el coro)

Solo:

   A#m               G#          F#         G#      A#m G# A#m

e-----------------1---------------------------------6-----------
B----------2---2-----4--------------------2-----4---------------
G--------3---3-----------5--------------3---------5-------------
D------3------------------------------4-------------------------
A--1------------------------------------------------------------
E---------------------------------2---------4-------------------

   A#m               G#        F#        G#     A#m F# G# A#m G#
e---------------------------------------------4------------
B------------2-------4/6---4p2-4/6--4-2-4p2-----6----------
G----------3---3-------------------------------------------
D--------3-------------------------------------------------
A--1---1---------------------------------------------------
E----------------------------------------------------------

 A#m                      G#                        F#
  //si tu vas en mi barca   no importa la tormenta
                    G#      A#m G# A#m
    tu mano siempre me ayudara
 A#m                      G#
    saber que vas conmigo   me hace descanzar
 F#               G#       A#m
    aun sobre el mar caminare
 D#m               G#       A#
    aun sobre las nubes volare.//

 D#m               G#       A#
  //aun sobre las nubes volare.//


Final: A#   Gm F A#   Gm F A#.

  Esta es mi primera aportacion a este sitio, talves tenga algunos
  errores pero suena muy bien, espero q les gust, Dios les bendiga!!
  !!!!!!!!!!!!!!!

            
            
Suggest correction
Creating personal tab
Creating personal tab
You can edit any tab online and save it as your Personal.

You can edit, replace or remove any tab part or add personal notes – all changes will be seen only by you.

Personal tabs can be accessed anytime from any device, even offline.
Learn more »
Give kudos to tab author, rate the tab!
1 2 3 4 5
comments
print report bad tab
guest
Wanna post a correction for this tab? Suggest correction