Oops, an error
Loading. Please wait.

Escarabajo tab

31 views 1 this week
no commentswrite comment
1 2 3 4 5
3 more votes to show rating
add to favorites
×
Save as Personal and add changes to this tab that will be seen only by you. Learn more ›
×
You can save this tab as Personal to edit and correct it or add notes. All changes will be seen only by you. Learn more »
launch autoscroll
font size
0
reset
how to read this tab
guitar tuner
edit
Autoscroll
slow
fast
+/-
esc
set tempo
stop
Intro x 2

--------------------------------------------------------0-----
----------------------------------------3-------------3---2---
--------0-------0-------0-------0-----0---0---------2-------2-
------4-------4-------4-------4-----4-------4-----0-----------
----2-------2-------3-------3-----5-----------5-2-------------
--0-------0-------0-------0-----------------------------------


---------------------------------
---------------------------------
----4--------4-------4-------4---
--5--------5-------5-------5-----
-------7-6-----6-5-----5-6-------
0--------------------------------
 No sé cuándo he de salir de acá,

--------0-----------------0------
------1---1-------------0---0----
----0-------0---------3-------3--
--2-----------2-----4-----------4
0-----------------4--------------
----------------2----------------
 dudo que estés esperándome.

---------------------------------
---------------------------------
----4--------4-------4-------4---
--5--------5-------5-------5-----
-------7-6-----6-5-----5-6-------
0--------------------------------
No sé si esta dulce voz será

--------0---------------------0--
------1---1-------------------0--
----0-------0---------3-------2--
--2-----------2-----4-------3----
0-----------------4-------3------
----------------2-------1--------
sólo un eco en mi cabeza.

0--------------------------------
0--------------------------------
6---------------------6---6------
7-------------------4-------4----
7-----------------5-----5--------
5--------------------------------
Hay un vasto desierto delante,

0--------------------------------
0--------------------------------
6---------------------6---6------
7-------------------4-------4----
7-----------------5-----5--------
5--------------------------------
voy detrás del espejismo del amor,

------0--------------------------
----1---1------------------------
--2-------2-------4--------------
0---------------5----------------
--------------5------------------
------------3--------------------
lejos y contigo se fue la paz,

---------------------------------
----------------------------5----
------7------------------4-------
----6---6-------------3----------
--5-------5--------4-------------
4--------------------------------
sólo espero llegar vivo para hallarte.


FA#m  LA     SI
Obstinado escarabajo,
RE        LA    SOL#m
empujando mi locura,
FA#m  LA             SI
pasa ciego frente de los mudos labios
RE               LA      SOL#m
de quien fue una vez cordura.

FA#m   LA     SI
Obstinado escarabajo,
RE     LA        SOL#m
empujando mi locura,
FA#m      LA   SI
sigue al sol, hacia el oeste,
RE             MI
piérdete en la noche oscura.
MI/SI      FA/DO     B5
La noche oscura.

Todavía está sitiada mi ciudad,
debo aprender a cruzar el fuego,
frente a un muro me debí de confesar,
pues con esta carga no iré al cielo.

Es el día que le sigue a la verdad,
sólo espero la resurrección,
ahora escucho a mis ángeles cantar
la canción que ahuyenta todo temor.

Obstinado escarabajo,
empujando mi locura,
pasa ciego frente de los mudos labios
de quien fue una vez cordura.
Obstinado escarabajo,
empujando mi locura,
sigue al sol, hacia el oeste,
piérdete en la noche oscura.
LA noche oscura.
Empujando mi locura.

            
            
Suggest correction
Creating personal tab
Creating personal tab
You can edit any tab online and save it as your Personal.

You can edit, replace or remove any tab part or add personal notes – all changes will be seen only by you.

Personal tabs can be accessed anytime from any device, even offline.
Learn more »
Give kudos to tab author, rate the tab!
1 2 3 4 5
comments
print report bad tab
guest
Wanna post a correction for this tab? Suggest correction