Oops, an error
Loading. Please wait.
We have Chord Pro version of Right Here Waiting.
It's the closest thing you can get to the original song and it has interactive parts. Check out the tab »
×

Right Here Waiting chords

version 12
version 12

Whole song

1,444 views 1 this week
no commentswrite comment
1 2 3 4 5
1 last vote to show rating
add to favorites
×
Save as Personal and add changes to this tab that will be seen only by you. Learn more ›
×
You can save this tab as Personal to edit and correct it or add notes. All changes will be seen only by you. Learn more »
launch autoscroll
font size
0
reset
transpose
0
reset
simplify chords
display chords
guitar tuner
edit
Autoscroll
slow
fast
+/-
esc
set tempo
stop
Author
Difficulty
About this tab version
Correction to previous, chords are cleaner, added melody. Was this info helpful? Yes No
Strumming
There is no strumming pattern for this song yet. and get +5 IQ
Chords:

  Cadd4  G   Am    F   Dm7  C/G
e|--3----3----5----1----5----3--|
B|--5----3----5----1----6----5--|
G|--5----4----5----2----5----5--|
D|--3----5----7----3----7----5--|
A|--3----5----7----3----5----3--|
E|--3----3----5----1----5----3--|


Melody:

e|------------------------------------------------|
B|-8--8--6--5--------------------5-h6-\5----------|
G|-------------7~--------5/7--7-------------------|
D|------------------------------------------------|
A|------------------------------------------------|
E|------------------------------------------------|

e|------------------------------------------------|
B|----------------5-------------------------------|
G|----5-----7-----------7-----5-----4-------------|
D|-7-----------------------------------7--5-------|
A|------------------------------------------------|
E|------------------------------------------------|

e|------------------------------------------------|
B|/8--8--6--5--------------------5--6--5----------|
G|-------------7~----------7--7-------------------|
D|------------------------------------------------|
A|------------------------------------------------|
E|------------------------------------------------|

e|------------------------------------------------|
B|----------------5--5h6---5----------------------|
G|----5-----7--------------------7-----5-\4-/5----|
D|-7----------------------------------------------|
A|------------------------------------------------|
E|------------------------------------------------|
           

Cadd4    G              Am
 Oceans apart day after day
      F      G    Cadd4
And I slowly go insane
Cadd4        G            Am
 I hear your voice on the line
       F       G        Am
But it doesn't stop the pain

Am            F
 If I see you next to never
Am          F      G
 How can we say forever

Cadd4         G
 Wherever you go
             Am
Whatever you do
Am        F          G           Cadd4
I will be right here waiting for you
            G
Whatever it takes
                Am
Or how my heart breaks
          F          G           Cadd4
I will be right here waiting for you

Cadd4       G                Am
 I took for granted, all the times
       F             G       Cadd4
That I though would last somehow
Cadd4      G                     Am
I hear the laughter, I taste the tears
      F         G        Am
But I can't get near you now

Am            F
Oh, can't you see it baby
Am            F     G
You've got me goin' crazy

Cadd4         G
 Wherever you go
             Am
Whatever you do
Am        F          G           Cadd4
I will be right here waiting for you
            G
Whatever it takes
                Am
Or how my heart breaks
          F          G           Dm7
I will be right here waiting for you

Dm7       C/G             F
 I wonder how we can survive

This romance
Dm7         C/G             F
 But in the end if I'm with you
              G
I'll take the chance

(MELODY)

Am            F
Oh, can't you see it baby
Am            F     G
You've got me goin' crazy

Cadd4         G
 Wherever you go
             Am
Whatever you do
Am        F          G           Cadd4
I will be right here waiting for you
            G
Whatever it takes
                Am
Or how my heart breaks
          F          G           Cadd4
I will be right here waiting for you

            
            
Suggest correction
Creating personal tab
Creating personal tab
You can edit any tab online and save it as your Personal.

You can edit, replace or remove any tab part or add personal notes – all changes will be seen only by you.

Personal tabs can be accessed anytime from any device, even offline.
Learn more »
Give kudos to tab author, rate the tab!
1 2 3 4 5
comments
print report bad tab
guest
You may want to rate the tab now too:
select rating
Wanna post a correction for this tab? Suggest correction