Oops, an error
Loading. Please wait.
We have Chord Pro version of Right Here Waiting.
It's the closest thing you can get to the original song and it has interactive parts. Check out the tab »
×
86,954 views 36 this week
4 commentsread comments
1 2 3 4 5
x 39
add to favorites
×
Save as Personal and add changes to this tab that will be seen only by you. Learn more ›
×
You can save this tab as Personal to edit and correct it or add notes. All changes will be seen only by you. Learn more »
launch autoscroll
font size
0
reset
how to read this tab
guitar tuner
edit
Autoscroll
slow
fast
+/-
esc
set tempo
stop
Author
Unregistered
e|-3-3-1-0------0-1-0--------0-----------|
B|--------3--3-3-------1-1-3--3-1-0------|
G|----------------------------------2-0--|
D|---------------------------------------|
A|---------------------------------------|
E|---------------------------------------|

e|-3-3-1-0------0-1-0--------0-1-0--------|
B|--------3--3-3-------1-1-3------3-1-0-1-|
G|----------------------------------------|
D|----------------------------------------|
A|----------------------------------------|
E|----------------------------------------|

Listen to the song for tempo and timing.
Does anyone know the chords?

            
            
Suggest correction
Creating personal tab
Creating personal tab
You can edit any tab online and save it as your Personal.

You can edit, replace or remove any tab part or add personal notes – all changes will be seen only by you.

Personal tabs can be accessed anytime from any device, even offline.
Learn more »
comments
print report bad tab
4 comments total. Showing first comments.
+1 reply
HarrisC1 81 Jan 22, 2003 07:00 PM

Chords are C, G, Am, F for verse/chorus. prechorus: Am, F
Bridge: Am, C, F, G.
So I would modify this tab to show:

E----3-3-1-0-----3------0--------1-----
B-----------0-----3------1----0---1---1
G---0--------0--0--0---2--2----0---2---
D--2------------0---0-2----2--------3--
A-3--3-3-------2-----0------0-0--1---3-
E-------------3------------------------


E---------0--
B-1---0---1--
G--2---0--0--
D---3---0-2--
A----3----3--
E------------

Rinse and repeat as necessary. I think it sounds good.

0 reply
HarrisC1 81 Jan 22, 2003 07:00 PM

Dang. I didn't realize what font they change it to when you post. Sorry.

0 reply
DJ_Inferno2000 244 Apr 07, 2004 08:00 PM

hey
the song aint by bryan adams. its by some marx chap

guest
Wanna post a correction for this tab? Suggest correction