Oops, an error
Loading. Please wait.

Tu Recuerdo tab

11,413 views 9 this week
1 commentread comment
1 2 3 4 5
x 3
add to favorites
×
Save as Personal and add changes to this tab that will be seen only by you. Learn more ›
×
You can save this tab as Personal to edit and correct it or add notes. All changes will be seen only by you. Learn more »
launch autoscroll
font size
0
reset
how to read this tab
guitar tuner
edit
Autoscroll
slow
fast
+/-
esc
set tempo
stop
Author
Difficulty
Introducción, Solo y Outro “Tu Recuerdo”.
Artista: Ricky Martín
Autor TAB: Cristhian Sancan
Clave: Cm y Rem#.

Introducción: La Guitarra y la Mandolina se confunden, pero más menos hacen
lo que sigue a continuación.

Mandolina

E---3---4--------------4-------|
B-4---6---8h9p8---8------4-3---|
G---------------8----5------5-4|  (La intro y en los coros)
D------------------------------|
A------------------------------|
E------------------------------|

Guitarra acompañamiento.

E—-----------------------------|
B—4--6--8----------4-------3---|
G--5--7-----8--------5-------4-|  (Ídem)
D----0----8--8---6-------5-----|
A-3-----6------6-------5-------|
E------------------------------|

Al final de los coros el Riff de la mandolina es básicamente:

E 11-11-11/10-10-10-10/6-6-6-|-11-10-8-|
B 13-13-11/11-11-11-11/8-8-8-|---------|
G ---------------------------|12-10-8--|
D ---------------------------|---------|
A ---------------------------|---------|
E ---------------------------|---------|

La transición de notas en la canción es:

Verso: Cm-Rem-Re#-LaB-Sol  (Fam-Sol al final de los versos)
Coros: Cm-Rem-Re#-LaB-Sol
Interludio:Fam-Sol

Luego del solo, la canción sube un tono y medio.

Solo:

E---------------------|-----------------------------|
B---------------------|---11------------------------|
G-------10-12-10-12*--|-10--13-13p12-10-12-10/7-(7)-|
D-10-12---------------|-----------------------------|
A---------------------|-----------------------------|
E---------------------|-----------------------------|


E—-15-13-15-13-15-15/11-------/16-15-13-16-13-15*|
B—13-------------------13------------------------|
G--------------------------13--------------------|
D------------------------------------------------|
A------------------------------------------------|
E------------------------------------------------|


E---20*--18*---16*----18p16---18p16—-18p16----18p16----15p13
B-18---16----13---------------------------------------------
G-------------------17-----17------17------17-------13------
D-----------------------------------------------------------
A-----------------------------------------------------------
E-----------------------------------------------------------

E----15p13----15p13----11----10---8|---------------------------------|
B----------------------------------|----------9h11h9-----------------|
G-13-------13-------12----10----8--|--10-12-13------13-12-10-13-10-12|
A----------------------------------|---------------------------------|
D----------------------------------|---------------------------------|
E----------------------------------|---------------------------------|

E----------------|
B--------------7-|
G-------7-8-10---|
D--8-10----------|
A----------------|
E----------------|

Outro: (Rem#)



E--------------13-11-10-------11-10-14-11-10-----11---7---------2----|
B-----7---9-12----------12-11---------------12-11---9---6------4-----|
G-8-8---8-------------------------------------------------7---3------|
D------------------------------------------------------------1-------|
A--------------------------------------------------------------------|
E--------------------------------------------------------------------|


Nota 1: Las notas en el solo son: Cm-Rem-Re#-LaB-Sol.
(Bajé mi guitarra medio tono. Suena mejor así)
Nota 2: Luego del solo sube un tono y medio, o sea a Rem#.
Nota 3: Los asteriscos (*) equivalen a fusas en la cuerda respectiva.
Nota 4: La canción tiene varios riffs de la Mandolina,
algunos ininteligibles,así que lo mejor es improvisar.

            
            
Suggest correction
Creating personal tab
Creating personal tab
You can edit any tab online and save it as your Personal.

You can edit, replace or remove any tab part or add personal notes – all changes will be seen only by you.

Personal tabs can be accessed anytime from any device, even offline.
Learn more »
Give kudos to tab author, rate the tab!
1 2 3 4 5
comments
print report bad tab
1 comment total.
0 reply
DjZcoth 10 Mar 09, 2010 10:31 AM

buuuuuuuuu

guest
You may want to rate the tab now too:
select rating
Wanna post a correction for this tab? Suggest correction