Oops, an error
Loading. Please wait.

I Rise I Fall bass

28 views 1 this week
no commentswrite comment
1 2 3 4 5
3 more votes to show rating
add to favorites
×
Save as Personal and add changes to this tab that will be seen only by you. Learn more ›
×
You can save this tab as Personal to edit and correct it or add notes. All changes will be seen only by you. Learn more »
launch autoscroll
font size
0
reset
guitar tuner
edit
Autoscroll
slow
fast
+/-
esc
set tempo
stop
Author
Difficulty
Tabbed by: 6METAL6BASSIST6
E-mail: petergriffinav@gmail.com

Tuning: EADG

G|----------------------------------------------------------------|
D|----------------------------------------------------------------|
A|5-----------------------4-------2-------------------------------|
E|--------------------------------------------------------5-------|

G|----------------------------------------------------------------|
D|--------------------------------------------7-------------------|
A|--------------------------------5-------------------------------|
E|3-----------5-----------5-------------------------------5-------|

G|----------------------------------------------------------------|
D|----------------------------------------------------------------|
A|5-----------------------4-------2-------------------------------|
E|--------------------------------------------------------5-------|

G|----------------------------------------------------------------|
D|------------------------------------------------------------4---|
A|--------------------------------5-------------------5---7-------|
E|3-----------5-----------5-------------------5-------------------|

0:15

G|----------------------------------------------------------------|
D|5-----------------------5-------7-----------------------7-------|
A|------------5-------------------------------7-------------------|
E|----------------------------------------------------------------|

G|----------------------------------------------------------------|
D|4-----------------------4-------------------4-------------------|
A|------------4-------------------2-----------------------2-------|
E|----------------------------------------------------------------|

G|----------------------------------------------------------------|
D|5-----------------------5-------7-----------------------7-------|
A|------------5-------------------------------7-------------------|
E|----------------------------------------------------------------|

G|----------------------------------------------------------------|
D|------------4-----------6-------7-----------------------7-------|
A|5-------------------------------------------7-------------------|
E|----------------------------------------------------------------|

0:31

G|----------------------------------------------------------------|
D|------------7-----------8-------9-----------------------9---\---|
A|5-------------------------------------------9-------------------|
E|----------------------------------------------------------------|

G|----------------------------------------------------------------|
D|5-----------5---7-----------7---------------4-----------7-------|
A|--------------------------------5-------------------------------|
E|----------------------------------------------------------------|

G|----------------------------------------------------------------|
D|------------7-----------8-------9-----------------------9---\---|
A|5-------------------------------------------9-------------------|
E|----------------------------------------------------------------|

G|----------------------------------------------------------------|
D|5-----------5---7-----------7---------------------------4-------|
A|--------------------------------5-----------7-------------------|
E|----------------------------------------------------------------|

0:46

G|----------------------------------------------------------------|
D|5-----------------------5-------7-----------------------7-------|
A|------------5-------------------------------7-------------------|
E|----------------------------------------------------------------|

G|----------------------------------------------------------------|
D|4-----------------------4-------------------4-------------------|
A|------------4-------------------2-----------------------2-------|
E|----------------------------------------------------------------|

G|----------------------------------------------------------------|
D|5-----------------------5-------7-----------------------7-------|
A|------------5-------------------------------7-------------------|
E|----------------------------------------------------------------|

G|----------------------------------------------------------------|
D|------------4-----------7-------------------------------4-------|
A|5-------------------------------5-----------7-------------------|
E|----------------------------------------------------------------|

1:01

G|----------------------------------------------------------------|
D|5-----------------------5-------4-----------------------4-------|
A|------------5-------------------------------4-------------------|
E|----------------------------------------------------------------|

G|----------------------------------------------------------------|
D|5-----------------------5-------------------------------4-------|
A|------------5-------------------5-----------7-------------------|
E|----------------------------------------------------------------|

G|----------------------------------------------------------------|
D|5-----------------------5-------4-----------------------4-------|
A|------------5-------------------------------4-------------------|
E|----------------------------------------------------------------|

G|----------------------------------------------------------------|
D|------------4-----------6-------7---7---5---5---4---4-----------|
A|7-------------------------------------------------------7-------|
E|----------------------------------------------------------------|

1:16

G|----------------------------------------------------------------|
D|------------7-----------8-------9-----------------------9---\---|
A|5-------------------------------------------9-------------------|
E|----------------------------------------------------------------|

G|----------------------------------------------------------------|
D|5-----------5---7-----------7---------------4-----------7-------|
A|--------------------------------5-------------------------------|
E|----------------------------------------------------------------|

G|----------------------------------------------------------------|
D|------------7-----------8-------9-----------------------9---\---|
A|5-------------------------------------------9-------------------|
E|----------------------------------------------------------------|

G|----------------------------------------------------------------|
D|5-----------5---7-----------7---------------------------4-------|
A|--------------------------------5-----------7-------------------|
E|----------------------------------------------------------------|

1:31

G|----------------------------------------------------------------|
D|5-----------------------5-------7-----------------------7-------|
A|------------5-------------------------------7-------------------|
E|----------------------------------------------------------------|

G|----------------------------------------------------------------|
D|4-----------------------4-------------------4-------------------|
A|------------4-------------------2-----------------------2-------|
E|----------------------------------------------------------------|

G|----------------------------------------------------------------|
D|5-----------------------5-------7-----------------------7-------|
A|------------5-------------------------------7-------------------|
E|----------------------------------------------------------------|

G|----------------------------------------------------------------|
D|------------4-----------7-------------------------------4-------|
A|5-------------------------------5-----------7-------------------|
E|----------------------------------------------------------------|

1:46

G|----------------------------------------------------------------|
D|5-----------------------5-------7-----------------------7-------|
A|------------5-------------------------------7-------------------|
E|----------------------------------------------------------------|

G|----------------------------------------------------------------|
D|4-----------------------4-------------------4-------------------|
A|------------4-------------------2-----------------------2-------|
E|----------------------------------------------------------------|

G|----------------------------------------------------------------|
D|5-----------------------5-------7-----------------------7-------|
A|------------5-------------------------------7-------------------|
E|----------------------------------------------------------------|

Until fadeout.

G|----------------------------------------------------------------|
D|------------4-----------6-------7-----------------------7-------|
A|5-------------------------------------------7-------------------|
E|----------------------------------------------------------------|

            
            
Suggest correction
Creating personal tab
Creating personal tab
You can edit any tab online and save it as your Personal.

You can edit, replace or remove any tab part or add personal notes – all changes will be seen only by you.

Personal tabs can be accessed anytime from any device, even offline.
Learn more »
Give kudos to tab author, rate the tab!
1 2 3 4 5
comments
print report bad tab
guest
You may want to rate the tab now too:
select rating
Wanna post a correction for this tab? Suggest correction