Oops, an error
Loading. Please wait.

Mean Old World bass

70 views 3 this week
no commentswrite comment
1 2 3 4 5
3 more votes to show rating
add to favorites
×
Save as Personal and add changes to this tab that will be seen only by you. Learn more ›
×
You can save this tab as Personal to edit and correct it or add notes. All changes will be seen only by you. Learn more »
launch autoscroll
font size
0
reset
guitar tuner
edit
Autoscroll
slow
fast
+/-
esc
set tempo
stop
Author
Difficulty
Tabbed by: 6METAL6BASSIST6
E-mail: petergriffinav@gmail.com

Tuning: EADG

G|----------------------------------------------------------------|
D|2-----------------------4-------2-----------------------4-------|
A|------------2-------------------------------2-------------------|
E|----------------------------------------------------------------|

0:05

G|----------------------------------------------------------------|
D|2-----------------------4-------2-----------------------4-------|
A|------------2-------------------------------2-------------------|
E|----------------------------------------------------------------|

G|----------------------------------------------------------------|
D|2-----------------------4-------2-------------------------------|
A|------------2-------------------------------2-------0---1---2---|
E|----------------------------------------------------------------|

G|----------------------------------------------------------------|
D|------------5-------------------------------4-------------------|
A|3-----------------------3-------2-----------------------2-------|
E|----------------------------------------------------------------|

G|----------------------------------------------------------------|
D|------------5-----------5---5---7-------------------------------|
A|3-------------------3-----------------------7-------------------|
E|----------------------------------------------------------------|

0:20

G|----------------------------------------------------------------|
D|----------------------------------------------------------------|
A|3-----------2---------------------------------------------------|
E|------------------------5---------------------------------------|

G|--------------------------------------------------------|
D|--------------------------------------------------------|
A|3-----------2-------------------------------------------|
E|------------------------5-------------------------------|

G|--------------------------------|
D|--------------------------------|
A|--------------------------------|
E|4-------------------------------|

G|----------------------------------------------------------------|
D|2-----------------------4-------2-----------------------4-------|
A|------------2-------------------------------2-------------------|
E|----------------------------------------------------------------|

G|----------------------------------------------------------------|
D|5-------5-------3---5-----------5-------5-------3---5-----------|
A|----------------------------5-----------------------------------|
E|----------------------------------------------------------------|

0:37

G|----------------------------------------------------------------|
D|2-----------------------4-------2-----------------------4-------|
A|------------2-------------------------------2-------------------|
E|----------------------------------------------------------------|

G|----------------------------------------------------------------|
D|2-----------------------4-------2-------------------------------|
A|------------2-------------------------------2-------0---1---2---|
E|----------------------------------------------------------------|

G|----------------------------------------------------------------|
D|------------5---------------5---4-----------------------4-------|
A|3-----------------------3-------------------2-------------------|
E|----------------------------------------------------------------|

G|----------------------------------------------------------------|
D|------------5-----------5---6---7-------------------------------|
A|3-------------------3-----------------------7-------------------|
E|----------------------------------------------------------------|

0:53

G|----------------------------------------------------------------|
D|----------------------------------------------------------------|
A|3-----------2---------------------------------------------------|
E|------------------------5---------------------------------------|

G|--------------------------------------------------------|
D|--------------------------------------------------------|
A|3-----------2-------------------------------------------|
E|------------------------5-------------------------------|

G|--------------------------------|
D|--------------------------------|
A|--------------------------------|
E|4-------------------------------|

G|----------------------------------------------------------------|
D|2-----------------------4-------2-----------------------2---/---|
A|------------2-------------------------------2-------------------|
E|----------------------------------------------------------------|

G|----------------------------------------------------------------|
D|5-------5-------3---5-----------5-------5-------3---5-----------|
A|----------------------------5---------------------------5---2---|
E|----------------------------------------------------------------|

1:10

G|----------------------------------------------------------------|
D|------------5---------------5---------------4---------------4---|
A|3-----------------------3-------2-----------------------2-------|
E|----------------------------------------------------------------|

G|----------------------------------------------------------------|
D|2-----------------------4-------2-----------------------2---/---|
A|------------2-------------------------------2-------------------|
E|----------------------------------------------------------------|

G|----------------------------------------------------------------|
D|7-----------------------5-------7-----------------------5/6-----|
A|------------7-------------------------------7-------------------|
E|----------------------------------------------------------------|

G|--------------------------------|
D|7-------------------------------|
A|------------7-------------------|
E|--------------------------------|

G|----------------------------------------------------------------|
D|----------------------------------------------------------------|
A|5-----------5---5-------5-------5-----------5---5---5---5---5---|
E|----------------------------------------------------------------|

1:27

G|----------------------------------------------------------------|
D|2-----------------------4-------2-----------------------4-------|
A|------------2-------------------------------2-------------------|
E|----------------------------------------------------------------|

G|----------------------------------------------------------------|
D|2-----------------------4-------2-------------------------------|
A|------------2-------------------------------2-------0---1---2---|
E|----------------------------------------------------------------|

G|----------------------------------------------------------------|
D|------------5---------------5---4-------------------------------|
A|3-----------------------3-------------------2-----------2-------|
E|----------------------------------------------------------------|

G|----------------------------------------------------------------|
D|------------5-----------5---6---7-------------------------------|
A|3-------------------3-----------------------7-------------------|
E|----------------------------------------------------------------|

1:43

G|----------------------------------------------------------------|
D|----------------------------------------------------------------|
A|3-----------2---------------------------------------------------|
E|------------------------5---------------------------------------|

G|--------------------------------------------------------|
D|--------------------------------------------------------|
A|3-----------2-------------------------------------------|
E|------------------------5-------------------------------|

G|--------------------------------|
D|--------------------------------|
A|--------------------------------|
E|4-------------------------------|

G|----------------------------------------------------------------|
D|2-----------------------4-------2-----------------------2---/---|
A|------------2-------------------------------2-------------------|
E|----------------------------------------------------------------|

G|----------------------------------------------------------------|
D|5-------5-------3---5-------5-----------5-------3---5-------2---|
A|------------------------5-------------------------------5-------|
E|----------------------------------------------------------------|

2:00

G|----------------------------------------------------------------|.
D|--------2-----------2-------2-----------2-----------2-------5---|.
A|----------------5-------5-----------------------5-------5-------|.
E|----------------------------------------------------------------|.
                                                                   . x2
G|----------------------------------------------------------------|.
D|--------5-------3---5-------5-----------5-------3---5-------2---|.
A|------------------------5-------------------------------5-------|.
E|----------------------------------------------------------------|.

            
            
Suggest correction
Creating personal tab
Creating personal tab
You can edit any tab online and save it as your Personal.

You can edit, replace or remove any tab part or add personal notes – all changes will be seen only by you.

Personal tabs can be accessed anytime from any device, even offline.
Learn more »
Give kudos to tab author, rate the tab!
1 2 3 4 5
comments
print report bad tab
guest
You may want to rate the tab now too:
select rating
Wanna post a correction for this tab? Suggest correction