Oops, an error
Loading. Please wait.

Antukin chords

version 4
version 4

Whole song

1,957 views 117 this week
no commentswrite comment
1 2 3 4 5
x 4
add to favorites
×
Save as Personal and add changes to this tab that will be seen only by you. Learn more ›
×
You can save this tab as Personal to edit and correct it or add notes. All changes will be seen only by you. Learn more »
launch autoscroll
font size
0
reset
transpose
0
reset
simplify chords
display chords
guitar tuner
edit
Autoscroll
slow
fast
+/-
esc
set tempo
stop
Author
Difficulty
About this tab version
Precise Tab for Verse and Bridge is included, and exact position of the chords for the entire song. Was this info helpful? Yes No
Strumming
There is no strumming pattern for this song yet. and get +5 IQ
Tuning: Standard

[Do this with Verse]
 [Guitar 1]
e|-----------------|-----------------|-----------------------------------|
B|-----------------|-----------------|-----------------------------------|
G|---------5-5-----|---------5-5-----|---------5-5-----5-5---------------|
D|-----5-5-----5-5-|-----5-5-----5-5-|-----5-5-----5-5-----5-5------5-5--|
A|-3-3-------------|-5-5-------------|--------------------------7-7------|
E|-----------------|-----------------|-5-5-------------------------------|

[Verse]
C         Dm         Am 
Iniwan ka na ng eroplano
C         Dm     Am          
Ok lang baby wag kang magbago
        C         Dm     Am 
Dito ka lang humiling sa akin piling
     F   Dm
Antukin.

C       Dm         Am 
Kukupkupin nalang kita,
C       Dm         Am 
sorry wala ka ng magagawa
        C         Dm  Am 
Mahalin mo nalang ako sobra-sobra
     F                  Dm
Para patas naman tayo diba?

[Chorus]
             C            Gm   Dm
Sasalubungin natin ang kinabukasan
             C               Gm   Dm
Nang Walang takot at walang pangamba
               C         Gm     Dm
Tadhana meron tip na makapangyarihan
F
Kung ayaw may dahilan,
      Dm
Kung gusto palaging may paraan

[Do this with Verse]
 [Guitar 1]
e|-----------------|-----------------|-----------------------------------|
B|-----------------|-----------------|-----------------------------------|
G|---------5-5-----|---------5-5-----|---------5-5-----5-5---------------|
D|-----5-5-----5-5-|-----5-5-----5-5-|-----5-5-----5-5-----5-5------5-5--|
A|-3-3-------------|-5-5-------------|--------------------------7-7------|
E|-----------------|-----------------|-5-5-------------------------------|

[Verse]
C         Dm         Am 
Pinaiyak ka ng manghuhula
C         Dm         Am 
Di na daw tayong magkasamang  tatanda
        C         Dm           Am 
Buti nalang meron langit na nagtatangol
         F                      Dm
sa pag-ibig na porsigido't matiyaga

[Chorus]
             C            Gm   Dm
Sasalubungin natin ang kinabukasan
             C            Gm   Dm
Nang Walang takot at walang pangamba
               C            Gm   Dm
Tadhana meron tip na makapangyarihan
F           
Kung ayaw may dahilan,
        Dm
Kung gusto palaging may paraan

[Bridge]
     Am                  G/B                 C                   Dm
e|-----------0--------|-----------0-------|-----------0-------|-----------0-------|
B|-------0-------0----|-------0-------0---|-------0-------0---|-------0-------0---|
G|-----5---5---5---5--|-----5---5---5---5-|-----5---5---5---5-|-----5---5---5---5-|
D|--------------------|-------------------|-------------------|-------------------|
A|---0----------------|--2----------------|--3----------------|--5----------------|
E|--------------------|-------------------|-------------------|-------------------|
            Long as we   stand us one,   ano man ang ating makabangga

     Am                  G/B                 F                   F
e|-----------0--------|-----------0-------|--1----------------|--1----------------|
B|-------0-------0----|-------0-------0---|--1----------------|--1----------------|
G|-----5---5---5---5--|-----5---5---5---5-|--2----------------|--2----------------|
D|--------------------|-------------------|--3----------------|--3----------------|
A|---0----------------|--2----------------|--3----------------|--3----------------|
E|--------------------|-------------------|--1----------------|--1----------------|
           Nothing will ever break us,             wala talaga..      as in wala.
[Adlib]
C Dm Am Am
C Dm Am Am
C Dm Am Am
F F Dm Dm

[Chorus]
             C            Gm   Dm
Sasalubungin natin ang kinabukasan
             C               Gm   Dm
Nang Walang takot at walang pangamba
               C          Gm   Dm
Tadhana meron tip na makapangyarihan
       F             
Kung ayaw may dahilan,
        Dm                        C
Kung gusto ay hahalikan nalang natin
      Gm    Dm             C         Gm    Dm
ang kinabukasan ng buong loob at yayakapin pa
               C    Gm        Dm
Tadhana mejo over-rated kung minsan
F               
Kung ayaw may dahilan,
            Dm                 C
Kung may gusto palaging may paraan

[Outro]
e|-----------------|-----------------|-----------------------------------|
B|-----------------|-----------------|-----------------------------------|
G|---------5-5-----|---------5-5-----|---------5-5-----5-5---------------|
D|-----5-5-----5-5-|-----5-5-----5-5-|-----5-5-----5-5-----5-5------5-5--|
A|-3-3-------------|-5-5-------------|--------------------------7-7------|
E|-----------------|-----------------|-5-5-------------------------------|

 Dm      Am
      Gumawa nalang tayo ng paraan
C Dm      Am
      Gumawa nalang tayo ng paraan
C Dm      Am
      Gumawa nalang tayo ng 
C    Dm      Am                    C
  Baby    Gumawa nalang tayo ng paraan

            
            
Suggest correction
Creating personal tab
Creating personal tab
You can edit any tab online and save it as your Personal.

You can edit, replace or remove any tab part or add personal notes – all changes will be seen only by you.

Personal tabs can be accessed anytime from any device, even offline.
Learn more »
comments
print report bad tab
guest
You may want to rate the tab now too:
select rating
Wanna post a correction for this tab? Suggest correction