Oops, an error
Loading. Please wait.

Antukin chords

version 2
version 2

Whole song

20,898 views 48 this week
1 commentread comment
1 2 3 4 5
x 3
add to favorites
×
Save as Personal and add changes to this tab that will be seen only by you. Learn more ›
×
You can save this tab as Personal to edit and correct it or add notes. All changes will be seen only by you. Learn more »
launch autoscroll
font size
0
reset
transpose
0
reset
display chords
guitar tuner
edit
Autoscroll
slow
fast
+/-
esc
set tempo
stop
Author
Difficulty
Strumming
There is no strumming pattern for this song yet. and get +5 IQ
Tuning: Standard

Do this with Verse:
 Guitar 1:
e|-------------------------------|----------------|
B|-------------------------------|----------------|
G|-----5----------5---------5----|--55---------55-|
D|---5---5------5---5-----5---5--|-----55---------|
A|-3---------55------------------|---------33-----|
E|----------------------5--------|----------------|

[Verse]
(Do CP: C-Dm-Am)
Iniwan ka na ng eroplano
Ok lang baby wag kang magbago
Dito ka lang humiling sa akin piling
Antukin.

[Interlude] C-Dm
(Do CP: C-Dm-Am)
Kukupkupin nalang kita, sorry wala ka ng magagawa
Mahalin mo nalang ako sobra-sobra
             C          Dm
Para patas naman tayo diba?

[Chorus]
                C       G      Dm
Sasalubungin natin ang kinabukasan
             C          G       Dm
Nang Walang takot at walang pangamba
           C         G         Dm
Tadhana meron tip na makapangyarihan
Dm            Am
Kung ayaw may dahilan,
Dm----
Kung gusto palaging may paraan

Do this with Verse:
 Guitar 1:
e|-------------------------------|----------------|
B|b-------------------------------|----------------|
G|g-----5----------5---------5----|--55---------55-|
D|---5---5------5---5-----5---5--|-----55---------|
A|-3---------55------------------|---------33-----|
E|----------------------5--------|----------------|

[Verse]
(Do CP: C-Dm-Am)
Pinaiyak ka ng manghuhula
Di na daw tayong magkasamang  tatanda
Buti nalang meron langit na nagtatangol
sa pag-ibig naposigido at matiyaga

[Chorus]
                C       G      Dm
Sasalubungin natin ang kinabukasan
             C          G       Dm
Nang Walang takot at walang pangamba
           C         G         Dm
Tadhana meron tip na makapangyarihan
Dm            Am
Kung ayaw may dahilan,
Dm----
Kung gusto palaging may paraan

(C-Dm-Am)
Longness,we stand us one,ano man ang ating makabangga aahh,..
Nothing will have break us, wala talaga..as in wala.

[Adlib] C-Dm-Am then C-Dm

[Chorus]
                C       G      Dm
Sasalubungin natin ang kinabukasan
             C          G       Dm
Nang Walang takot at walang pangamba
           C         G         Dm
Tadhana meron tip na makapangyarihan
 Dm               Am
Kung ayaw may dahilan,
     Dm                           C
Kung gusto ay hahalikan nalang natin
           G         Dm    C            G
ang kinabukasan ng buong loob at yayakapin pa
  Dm       C      G  Dm
Tadhana mejo over-raded
Dm                Am
Kung ayaw may dahilan,
Dm------------
Kung may gusto palaging may paraan

------------------------->>>
Gumawa nalang tayo ng paraan
Gumawa nalang tayo ng paraan

[Intro]

 Guitar 1:
e|-------------------------------|----------------|
B|-------------------------------|----------------|
G|-----5----------5---------5----|--55---------55-|
D|---5---5------5---5-----5---5--|-----55---------|
A|-3---------55------------------|---------33-----|
E|----------------------5--------|----------------|

            
            
Suggest correction
Creating personal tab
Creating personal tab
You can edit any tab online and save it as your Personal.

You can edit, replace or remove any tab part or add personal notes – all changes will be seen only by you.

Personal tabs can be accessed anytime from any device, even offline.
Learn more »
Give kudos to tab author, rate the tab!
1 2 3 4 5
comments
print report bad tab
1 comment total.
0 reply
ghouleater0 10 Apr 02, 2017 06:26 AM

mali ung tabs siguro di ganun ung tunog ng last part

guest
You may want to rate the tab now too:
select rating
Wanna post a correction for this tab? Suggest correction