Oops, an error
Loading. Please wait.

Ausencia tab

20 views 1 this week
no commentswrite comment
1 2 3 4 5
3 more votes to show rating
add to favorites
×
Save as Personal and add changes to this tab that will be seen only by you. Learn more ›
×
You can save this tab as Personal to edit and correct it or add notes. All changes will be seen only by you. Learn more »
launch autoscroll
font size
0
reset
how to read this tab
guitar tuner
edit
Autoscroll
slow
fast
+/-
esc
set tempo
stop
*****Esto es 100% metal Venezolano la cancion 
esta tres tonos abajo de la afinación normal
bueno voten por esta canción y cualquier vaina 
me escriben.


Intro:(Clean)
C#|-------------------------------------------
G#|-------------------------------------------
E |------------------------------------------- 
B |-2-3p2-2-2-3p2-4-3--2-3p2-2-2-3p2-5-3------
G#|-2-3p2-2-2-3p2-4-3--2-3p2-2-2-3p2-5-3------
B |-2-3p2-2-2-3p2-4-3--2-3p2-2-2-3p2-5-3------

Guitarra 1:
C#|-------------------------------------------
G#|-------------------------------------------
E |------------------------------------------- 
B |-2-3p2-2-2-3p2-4-3--2-3p2-2-2-3p2-5-3------
G#|-2-3p2-2-2-3p2-4-3--2-3p2-2-2-3p2-5-3------
B |-2-3p2-2-2-3p2-4-3--2-3p2-2-2-3p2-5-3------


Guitarra 2: 
C#|-------------------------------------------------------
G#|-------------------------------------------------------
E |-9-9-9-9-9--10p9--10p9--9/7-7-7-7-7-7------------------ 
B |-x-x-x-x-x--x-----x-----x/x-x-x-x-x-x------------------
G |-7-7-7-7-7--7-----7-----7/5-5-5-5-5-5------------------
B |-0-0-0-0-0--0-----0-----0/0-0-0-0-0-0------------------

Guitarra 2:
C#|-------------------------------------------------------
G#|-------------------------------------------------------
E |-9-9-9-9-9--10p9--10p9--9/7-7-7-7-7-7------------------ 
B |-x-x-x-x-x--x-----x-----x/x-x-x-x-x-x------------------
G#|-7-7-7-7-7--7-----7-----7/5-5-5-5-5-5------------------
B |-0-0-0-0-0--0-----0-----0/0-0-0-0-0-0------------------

Guitarra 1:
C#|-------------------------------------------
G#|-------------------------------------------
E |------------------------------------------- 
B |-2-3p2-2-2-3p2-4-3--2-3p2-2~-2-2-2-2-2-2---
G#|-2-3p2-2-2-3p2-4-3--2-3p2-2~-2-2-2-2-2-2---
B |-2-3p2-2-2-3p2-4-3--2-3p2-2~-2-2-2-2-2-2---

Guitarra 2: 
C#|-------------------------------------------------------
G#|-------------------------------------------------------
E |-9-9-9-9-9--10p9--10p9--9/7-7-7-7-7-7------------------ 
B |-x-x-x-x-x--x-----x-----x/x-x-x-x-x-x------------------
G#|-7-7-7-7-7--7-----7-----7/5-5-5-5-5-5------------------
B |-0-0-0-0-0--0-----0-----0/0-0-0-0-0-0------------------

Guitarra 2:
C#|-------------------------------------------------------
G#|-------------------------------------------------------
E |-9-9-9-9-9--10p9---9-9-9-9-9-9-9----------------------- 
B |-x-x-x-x-x--x------x-x-x-x-x-x-x-----------------------
G#|-7-7-7-7-7--7------7-7-7-7-7-7-7-----------------------
B |-0-0-0-0-0--0------0-0-0-0-0-0-0-----------------------

Guitarra 1:
C#|-------------------------------------------
G#|-------------------------------------------
E |------------------------------------------- 
B |-2-3p2-2-2-3p2-4-3--2-3p2-2-2-3p2-5-3------
G#|-2-3p2-2-2-3p2-4-3--2-3p2-2-2-3p2-5-3------
B |-2-3p2-2-2-3p2-4-3--2-3p2-2-2-3p2-5-3------

Guitarra 2: 
C#|-------------------------------------------------------
G#|-------------------------------------------------------
E |-9-9-9-9-9--10p9--10p9--9/7-7-7-7-7-7------------------ 
B |-x-x-x-x-x--x-----x-----x/x-x-x-x-x-x------------------
G#|-7-7-7-7-7--7-----7-----7/5-5-5-5-5-5------------------
B |-0-0-0-0-0--0-----0-----0/0-0-0-0-0-0------------------

Guitarra 2: 
C#|-------------------------------------------------------
G#|-------------------------------------------------------
E |-9-9-9-9-9--10p9--10p9--9/7-7-7-7-7-7------------------ 
B |-x-x-x-x-x--x-----x-----x/x-x-x-x-x-x------------------
G |-7-7-7-7-7--7-----7-----7/5-5-5-5-5-5------------------
B |-0-0-0-0-0--0-----0-----0/0-0-0-0-0-0------------------

Guitarra 1:
C#|---------------------------------------------
G#|---------------------------------------------
E |---------------------------------------------
B |-2-3p2-2-2-3p2-4-3--2~-x2x-x-x2x-------------
G#|-2-3p2-2-2-3p2-4-3--2~-x2x-x-x2x-------------
B |-2-3p2-2-2-3p2-4-3--2~-x2x-x-x2x-------------

Guitarra 2:
C#|-------------------------------------------------------
G#|-------------------------------------------------------
E |-9-9-9-9-9--10p9--10p9--9/7-7-7-7-7-7------------------ 
B |-x-x-x-x-x--x-----x-----x/x-x-x-x-x-x------------------
G#|-7-7-7-7-7--7-----7-----7/5-5-5-5-5-5------------------
B |-0-0-0-0-0--0-----0-----0/0-0-0-0-0-0------------------


Guitarra 2: 
C#|---------------------------------------------
G#|---------------------------------------------
E |-9-9-9-9-9--10p9--10p9--x9x-x-x9x------------
B |-x-x-x-x-x--x-----x-----xxx-x-xxx------------
G#|-7-7-7-7-7--7-----7-----x7x-x-x7x------------
B |-0-0-0-0-0--0-----0-----x0x-x-x0x------------

Verso:

Guitarra 1:
C#|-------------------------------------------
G#|-------------------------------------------
E |------------------------------------------- 
B |-2-3p2-2-2-3p2-4-3--2-3p2-2-2-3p2-5-3------
G#|-2-3p2-2-2-3p2-4-3--2-3p2-2-2-3p2-5-3------
B |-2-3p2-2-2-3p2-4-3--2-3p2-2-2-3p2-5-3------

Guitarra 2: 
C#|-------------------------------------------------------
G#|-------------------------------------------------------
E |-9-9-9-9-9--10p9--10p9--9/7-7-7-7-7-7------------------ 
B |-x-x-x-x-x--x-----x-----x/x-x-x-x-x-x------------------
G#|-7-7-7-7-7--7-----7-----7/5-5-5-5-5-5------------------
B |-0-0-0-0-0--0-----0-----0/0-0-0-0-0-0------------------

Guitarra 2: 
C#|-------------------------------------------------------
G#|-------------------------------------------------------
E |-9-9-9-9-9--10p9--10p9--9/7-7-7-7-7-7------------------ 
B |-x-x-x-x-x--x-----x-----x/x-x-x-x-x-x------------------
G |-7-7-7-7-7--7-----7-----7/5-5-5-5-5-5------------------
B |-0-0-0-0-0--0-----0-----0/0-0-0-0-0-0------------------

Guitarra 1:
C#|---------------------------------------------
G#|---------------------------------------------
E |---------------------------------------------
B |-2-3p2-2-2-3p2-4-3--2~-x2x-x-x2x-------------
G#|-2-3p2-2-2-3p2-4-3--2~-x2x-x-x2x-------------
B |-2-3p2-2-2-3p2-4-3--2~-x2x-x-x2x-------------

Guitarra 2:
C#|-------------------------------------------------------
G#|-------------------------------------------------------
E |-9-9-9-9-9--10p9--10p9--9/7-7-7-7-7-7------------------ 
B |-x-x-x-x-x--x-----x-----x/x-x-x-x-x-x------------------
G#|-7-7-7-7-7--7-----7-----7/5-5-5-5-5-5------------------
B |-0-0-0-0-0--0-----0-----0/0-0-0-0-0-0------------------


Guitarra 2: 
C#|---------------------------------------------
G#|---------------------------------------------
E |-9-9-9-9-9--10p9--10p9--x9x-x-x9x------------
B |-x-x-x-x-x--x-----x-----xxx-x-xxx------------
G#|-7-7-7-7-7--7-----7-----x7x-x-x7x------------
B |-0-0-0-0-0--0-----0-----x0x-x-x0x------------

Coro: 
Guitarra 1 y 2:
C#|----------8-8-8-8-8----------8-8-8-8-8------------
G#|----------x-x-x-x-x----------x-x-x-x-x------------
E |----------5-5-5-5-5----------5-5-5-5-5------------ 
B |-7-7-7-7-------------7-7-7-7----------------------
G#|-7-7-7-7-------------7-7-7-7----------------------
B |-7-7-7-7-------------7-7-7-7----------------------

Guitarra 1 y 2:
C#|----------8-8-8-8-8-------------------------------
G#|----------x-x-x-x-x--8-8-8-8-8-8-8----------------
E |----------5-5-5-5-5--x-x-x-x-x-x-x----------------
B |-7-7-7-7-------------5-5-5-5-5-5-5----------------
G#|-7-7-7-7------------------------------------------
B |-7-7-7-7------------------------------------------

Guitarra 1 y 2:
C#|----------8-8-8-8-8----------8-8-8-8-8------------
G#|----------x-x-x-x-x----------x-x-x-x-x------------
E |----------5-5-5-5-5----------5-5-5-5-5------------ 
B |-7-7-7-7-------------7-7-7-7----------------------
G#|-7-7-7-7-------------7-7-7-7----------------------
B |-7-7-7-7-------------7-7-7-7----------------------

Guitarra 1 y 2:
C#|----------8-8-8-8-8-------------------------------
G#|----------x-x-x-x-x--8-8-8-8-8-8-8----------------
E |----------5-5-5-5-5--x-x-x-x-x-x-x----------------
B |-7-7-7-7-------------5-5-5-5-5-5-5----------------
G#|-7-7-7-7------------------------------------------
B |-7-7-7-7------------------------------------------
 
Final del coro:

Guitarra 1:
C#|--------------------------------------------------
G#|--------------------------------------------------
E |--------------------------------------------------
B |-9-9-9-9--10p9-10p9--9-9-9-9--10p9-10p9-----------
G#|-7-7-7-7--7-7--7-7---7-7-7-7--7-7--7-7------------
B |-7-7-7-7--7-7--7-7---7-7-7-7--7-7--7-7------------

Guitarra 2:
C#|-------------------------------------------
G#|-------------------------------------------
E |------------------------------------------- 
B |-2-3p2-2-2-3p2-3-4--2-3p2-2-2-3p2-3-5------
G#|-2-3p2-2-2-3p2-3-4--2-3p2-2-2-3p2-3-5------
B |-2-3p2-2-2-3p2-3-4--2-3p2-2-2-3p2-3-5------

Guitarra 1:
C#|--------------------------------------------------
G#|--------------------------------------------------
E |--------------------------------------------------
B |-9-9-9-9--10p9-10p9--7-7-7-7--x7x-x-x7x-----------
G#|-7-7-7-7--7-7--7-7---7-7-7-7--x7x-x-x7x-----------
B |-7-7-7-7--7-7--7-7---7-7-7-7--x7x-x-x7x-----------

Guitarra 2
C#|-------------------------------------------
G#|-------------------------------------------
E |------------------------------------------- 
B |-2-3p2-2-2-3p2-4-3--2~-x2x-x-x2x-------------
G#|-2-3p2-2-2-3p2-4-3--2~-x2x-x-x2x-------------
B |-2-3p2-2-2-3p2-4-3--2~-x2x-x-x2x-------------


Verso:

Guitarra 1:
C#|-------------------------------------------
G#|-------------------------------------------
E |------------------------------------------- 
B |-2-3p2-2-2-3p2-4-3--2-3p2-2-2-3p2-5-3------
G#|-2-3p2-2-2-3p2-4-3--2-3p2-2-2-3p2-5-3------
B |-2-3p2-2-2-3p2-4-3--2-3p2-2-2-3p2-5-3------

Guitarra 2: 
C#|-------------------------------------------------------
G#|-------------------------------------------------------
E |-9-9-9-9-9--10p9--10p9--9/7-7-7-7-7-7------------------ 
B |-x-x-x-x-x--x-----x-----x/x-x-x-x-x-x------------------
G#|-7-7-7-7-7--7-----7-----7/5-5-5-5-5-5------------------
B |-0-0-0-0-0--0-----0-----0/0-0-0-0-0-0------------------

Guitarra 2: 
C#|-------------------------------------------------------
G#|-------------------------------------------------------
E |-9-9-9-9-9--10p9--10p9--9/7-7-7-7-7-7------------------ 
B |-x-x-x-x-x--x-----x-----x/x-x-x-x-x-x------------------
G |-7-7-7-7-7--7-----7-----7/5-5-5-5-5-5------------------
B |-0-0-0-0-0--0-----0-----0/0-0-0-0-0-0------------------

Guitarra 1:
C#|---------------------------------------------
G#|---------------------------------------------
E |---------------------------------------------
B |-2-3p2-2-2-3p2-4-3--2~-x2x-x-x2x-------------
G#|-2-3p2-2-2-3p2-4-3--2~-x2x-x-x2x-------------
B |-2-3p2-2-2-3p2-4-3--2~-x2x-x-x2x-------------

Guitarra 2:
C#|-------------------------------------------------------
G#|-------------------------------------------------------
E |-9-9-9-9-9--10p9--10p9--9/7-7-7-7-7-7------------------ 
B |-x-x-x-x-x--x-----x-----x/x-x-x-x-x-x------------------
G#|-7-7-7-7-7--7-----7-----7/5-5-5-5-5-5------------------
B |-0-0-0-0-0--0-----0-----0/0-0-0-0-0-0------------------


Guitarra 2: 
C#|---------------------------------------------
G#|---------------------------------------------
E |-9-9-9-9-9--10p9--10p9--x9x-x-x9x------------
B |-x-x-x-x-x--x-----x-----xxx-x-xxx------------
G#|-7-7-7-7-7--7-----7-----x7x-x-x7x------------
B |-0-0-0-0-0--0-----0-----x0x-x-x0x------------

Coro: 
Guitarra 1 y 2:
C#|----------8-8-8-8-8----------8-8-8-8-8------------
G#|----------x-x-x-x-x----------x-x-x-x-x------------
E |----------5-5-5-5-5----------5-5-5-5-5------------ 
B |-7-7-7-7-------------7-7-7-7----------------------
G#|-7-7-7-7-------------7-7-7-7----------------------
B |-7-7-7-7-------------7-7-7-7----------------------

Guitarra 1 y 2:
C#|----------8-8-8-8-8-------------------------------
G#|----------x-x-x-x-x--8-8-8-8-8-8-8----------------
E |----------5-5-5-5-5--x-x-x-x-x-x-x----------------
B |-7-7-7-7-------------5-5-5-5-5-5-5----------------
G#|-7-7-7-7------------------------------------------
B |-7-7-7-7------------------------------------------

Guitarra 1 y 2:
C#|----------8-8-8-8-8----------8-8-8-8-8------------
G#|----------x-x-x-x-x----------x-x-x-x-x------------
E |----------5-5-5-5-5----------5-5-5-5-5------------ 
B |-7-7-7-7-------------7-7-7-7----------------------
G#|-7-7-7-7-------------7-7-7-7----------------------
B |-7-7-7-7-------------7-7-7-7----------------------

Guitarra 1 y 2:
C#|----------8-8-8-8-8-------------------------------
G#|----------x-x-x-x-x--8-8-8-8-8-8-8----------------
E |----------5-5-5-5-5--x-x-x-x-x-x-x----------------
B |-7-7-7-7-------------5-5-5-5-5-5-5----------------
G#|-7-7-7-7------------------------------------------
B |-7-7-7-7------------------------------------------

Final del coro:

Guitarra 1:
C#|--------------------------------------------------
G#|--------------------------------------------------
E |--------------------------------------------------
B |-9-9-9-9--10p9-10p9--9-9-9-9--10p9-10p9-----------
G#|-7-7-7-7--7-7--7-7---7-7-7-7--7-7--7-7------------
B |-7-7-7-7--7-7--7-7---7-7-7-7--7-7--7-7------------

Guitarra 2:
C#|-------------------------------------------
G#|-------------------------------------------
E |------------------------------------------- 
B |-2-3p2-2-2-3p2-3-4--2-3p2-2-2-3p2-3-5------
G#|-2-3p2-2-2-3p2-3-4--2-3p2-2-2-3p2-3-5------
B |-2-3p2-2-2-3p2-3-4--2-3p2-2-2-3p2-3-5------

Guitarra 1:
C#|--------------------------------------------------
G#|--------------------------------------------------
E |--------------------------------------------------
B |-9-9-9-9--10p9-10p9--7-7-7-7--x7x-x-x7x-----------
G#|-7-7-7-7--7-7--7-7---7-7-7-7--x7x-x-x7x-----------
B |-7-7-7-7--7-7--7-7---7-7-7-7--x7x-x-x7x-----------

Guitarra 2
C#|-------------------------------------------
G#|-------------------------------------------
E |------------------------------------------- 
B |-2-3p2-2-2-3p2-4-3--2~-x2x-x2x-------------
G#|-2-3p2-2-2-3p2-4-3--2~-x2x-x2x-------------
B |-2-3p2-2-2-3p2-4-3--2~-x2x-x2x-------------

Solo:
Guitarra 2:
C#|-------------------------------------------
G#|-------------------------------------------
E |------------------------------------------- 
B |-2-3p2-2-3p2-2-0---------------------------
G#|-2-3p2-2-3p2-2-0---------------------------
B |-2-3p2-2-3p2-2-0---------------------------

Guitarra 1:
C#|-8-7--7--8/7--7/5--------------------------
G#|-x/x--x--x/x--x/x--------------------------
E |-5/4--4--5/4--4/2-------------------------- 
B |-------------------------------------------
G#|-------------------------------------------
B |-------------------------------------------

Guitarra 2:
C#|-------------------------------------------
G#|-------------------------------------------
E |------------------------------------------- 
B |-2-3p2-2-3p2-2-0---------------------------
G#|-2-3p2-2-3p2-2-0---------------------------
B |-2-3p2-2-3p2-2-0---------------------------

Guitarra 1:
C#|-8-7--7--8/7--7/5--------------------------
G#|-x/x--x--x/x--x/x--------------------------
E |-5/4--4--5/4--4/2-------------------------- 
B |-------------------------------------------
G#|-------------------------------------------
B |-------------------------------------------

Guitarra 2:
C#|-------------------------------------------
G#|-------------------------------------------
E |------------------------------------------- 
B |-2-3p2-2-3p2-2-0---------------------------
G#|-2-3p2-2-3p2-2-0---------------------------
B |-2-3p2-2-3p2-2-0---------------------------

Guitarra 1:
C#|-8-7--7--8/7--7/5--------------------------
G#|-x/x--x--x/x--x/x--------------------------
E |-5/4--4--5/4--4/2-------------------------- 
B |-------------------------------------------
G#|-------------------------------------------
B |-------------------------------------------

Guitarra 2:
C#|-------------------------------------------
G#|-------------------------------------------
E |------------------------------------------- 
B |-2-3p2-2-3p2-2-0---------------------------
G#|-2-3p2-2-3p2-2-0---------------------------
B |-2-3p2-2-3p2-2-0---------------------------

Guitarra 1:
C#|-8-7--7--8/7--7/5--------------------------
G#|-x/x--x--x/x--x/x--------------------------
E |-5/4--4--5/4--4/2-------------------------- 
B |-------------------------------------------
G#|-------------------------------------------
B |-------------------------------------------

Guitarra 2:
C#|-------------------------------------------
G#|-------------------------------------------
E |------------------------------------------- 
B |-2-3p2-2-3p2-2-0---------------------------
G#|-2-3p2-2-3p2-2-0---------------------------
B |-2-3p2-2-3p2-2-0---------------------------

Guitarra 1:
C#|-------------------------------------------
G#|-7\8-8-8--8\10-10-10-10\12-10-8------------
E |-x\x-x-x--x\x--x--x---x\x--x--x------------ 
B |-4\5-5-5--5\7--7--7---7\9--7--5------------
G#|-------------------------------------------
B |-------------------------------------------

Guitarra 2:
C#|-------------------------------------------
G#|-------------------------------------------
E |------------------------------------------- 
B |-2-3p2-2-3p2-2-0---------------------------
G#|-2-3p2-2-3p2-2-0---------------------------
B |-2-3p2-2-3p2-2-0---------------------------

Guitarra 1:
C#|-8-7--7--8/7--7/5--------------------------
G#|-x/x--x--x/x--x/x--------------------------
E |-5/4--4--5/4--4/2-------------------------- 
B |-------------------------------------------
G#|-------------------------------------------
B |-------------------------------------------

Guitarra 2:
C#|-------------------------------------------
G#|-------------------------------------------
E |------------------------------------------- 
B |-2-3p2-2-3p2-2-0---------------------------
G#|-2-3p2-2-3p2-2-0---------------------------
B |-2-3p2-2-3p2-2-0---------------------------

Guitarra 1:
C#|-8-7--7--8/7--7/5--------------------------
G#|-x/x--x--x/x--x/x--------------------------
E |-5/4--4--5/4--4/2-------------------------- 
B |-------------------------------------------
G#|-------------------------------------------
B |-------------------------------------------

Guitarra 2:
C#|-------------------------------------------
G#|-------------------------------------------
E |------------------------------------------- 
B |-2-3p2-2-3p2-2-0---------------------------
G#|-2-3p2-2-3p2-2-0---------------------------
B |-2-3p2-2-3p2-2-0---------------------------

Guitarra 2:
C#|-------------------------------------------
G#|-------------------------------------------
E |------------------------------------------- 
B |-2-3p2-2-3p2-2-0---------------------------
G#|-2-3p2-2-3p2-2-0---------------------------
B |-2-3p2-2-3p2-2-0---------------------------

Guitarra 1:
C#|-8-7--7--8/7--7/5--------------------------
G#|-x/x--x--x/x--x/x--------------------------
E |-5/4--4--5/4--4/2-------------------------- 
B |-------------------------------------------
G#|-------------------------------------------
B |-------------------------------------------

Guitarra 2:
C#|-------------------------------------------
G#|-------------------------------------------
E |------------------------------------------- 
B |-2-3p2-2-3p2-2-0---------------------------
G#|-2-3p2-2-3p2-2-0---------------------------
B |-2-3p2-2-3p2-2-0---------------------------

Guitarra 1:
C#|------------------------7\8\12-------------
G#|-7\8-8-8--8\10-10-10-10-x\x\x--------------
E |-x\x-x-x--x\x--x--x---x-4\5\9-------------- 
B |-4\5-5-5--5\7--7--7---7--------------------
G#|-------------------------------------------
B |-------------------------------------------

Guitarra 2:
C#|-------------------------------------------
G#|-------------------------------------------
E |------------------------------------------- 
B |-2-3p2-2-3p2-2-0---------------------------
G#|-2-3p2-2-3p2-2-0---------------------------
B |-2-3p2-2-3p2-2-0---------------------------

Final solo: con wah wah=o y pinch armonicos
C#|-----------7o-------------------------------
G#|----7o-----xo-------------------------------
E |-9--xo--9--4o------------------------------- 
B |-x--40--x-----------------------------------
G#|-7------7-----------------------------------
B |-0------0-----------------------------------
              P.A
Coro: 
Guitarra 1 y 2:
C#|----------8-8-8-8-8----------8-8-8-8-8------------
G#|----------x-x-x-x-x----------x-x-x-x-x------------
E |----------5-5-5-5-5----------5-5-5-5-5------------ 
B |-7-7-7-7-------------7-7-7-7----------------------
G#|-7-7-7-7-------------7-7-7-7----------------------
B |-7-7-7-7-------------7-7-7-7----------------------

Guitarra 1 y 2:
C#|----------8-8-8-8-8-------------------------------
G#|----------x-x-x-x-x--8-8-8-8-8-8-8----------------
E |----------5-5-5-5-5--x-x-x-x-x-x-x----------------
B |-7-7-7-7-------------5-5-5-5-5-5-5----------------
G#|-7-7-7-7------------------------------------------
B |-7-7-7-7------------------------------------------

Guitarra 1 y 2:
C#|----------8-8-8-8-8----------8-8-8-8-8------------
G#|----------x-x-x-x-x----------x-x-x-x-x------------
E |----------5-5-5-5-5----------5-5-5-5-5------------ 
B |-7-7-7-7-------------7-7-7-7----------------------
G#|-7-7-7-7-------------7-7-7-7----------------------
B |-7-7-7-7-------------7-7-7-7----------------------

Guitarra 1 y 2:
C#|----------8-8-8-8-8-------------------------------
G#|----------x-x-x-x-x--8-8-8-8-8-8-8----------------
E |----------5-5-5-5-5--x-x-x-x-x-x-x----------------
B |-7-7-7-7-------------5-5-5-5-5-5-5----------------
G#|-7-7-7-7------------------------------------------
B |-7-7-7-7------------------------------------------

Final del coro:

Guitarra 1:
C#|--------------------------------------------------
G#|--------------------------------------------------
E |--------------------------------------------------
B |-9-9-9-9--10p9-10p9--9-9-9-9--10p9-10p9-----------
G#|-7-7-7-7--7-7--7-7---7-7-7-7--7-7--7-7------------
B |-7-7-7-7--7-7--7-7---7-7-7-7--7-7--7-7------------

Guitarra 2:
C#|-------------------------------------------
G#|-------------------------------------------
E |------------------------------------------- 
B |-2-3p2-2-2-3p2-2p0---2-3p2-2-2-3p2-2p0-----
G#|-2-3p2-2-2-3p2-2p0---2-3p2-2-2-3p2-2p0-----
B |-2-3p2-2-2-3p2-2p0---2-3p2-2-2-3p2-2p0-----

Guitarra 1:
C#|--------------------------------------------------
G#|--------------------------------------------------
E |--------------------------------------------------
B |-9-9-9-9--10p9-10p9--9-9-9-9--10p9-10p9-----------
G#|-7-7-7-7--7-7--7-7---7-7-7-7--7-7--7-7------------
B |-7-7-7-7--7-7--7-7---7-7-7-7--7-7--7-7------------

Guitarra 2:
C#|-------------------------------------------
G#|-------------------------------------------
E |------------------------------------------- 
B |-2-3p2-2-2-3p2-2p0---2-3p2-2-2-3p2-2p0-----
G#|-2-3p2-2-2-3p2-2p0---2-3p2-2-2-3p2-2p0-----
B |-2-3p2-2-2-3p2-2p0---2-3p2-2-2-3p2-2p0-----

Guitarra 1 y 2:
C#|-------------------------------------------
G#|-------------------------------------------
E |------------------------------------------- 
B |-2-3p2-2-2-3p2-x---2-3p2-2-2-3p2-x---------
G#|-2-3p2-2-2-3p2-x---2-3p2-2-2-3p2-x---------
B |-2-3p2-2-2-3p2-x---2-3p2-2-2-3p2-x---------

Guitarra 1 y 2:
C#|-------------------------------------------
G#|-------------------------------------------
E |------------------------------------------- 
B |-2-3p2-2-2-3p2-x---2-3p2-2-2-3p2-x---------
G#|-2-3p2-2-2-3p2-x---2-3p2-2-2-3p2-x---------
B |-2-3p2-2-2-3p2-x---2-3p2-2-2-3p2-x---------

            
            
Suggest correction
Creating personal tab
Creating personal tab
You can edit any tab online and save it as your Personal.

You can edit, replace or remove any tab part or add personal notes – all changes will be seen only by you.

Personal tabs can be accessed anytime from any device, even offline.
Learn more »
Give kudos to tab author, rate the tab!
1 2 3 4 5
comments
print report bad tab
guest
Wanna post a correction for this tab? Suggest correction