Oops, an error
Loading. Please wait.

No Me Importa Nada chords

version 1
version 1

Whole song

30 views 1 this week
no commentswrite comment
1 2 3 4 5
3 more votes to show rating
add to favorites
×
Save as Personal and add changes to this tab that will be seen only by you. Learn more ›
×
You can save this tab as Personal to edit and correct it or add notes. All changes will be seen only by you. Learn more »
launch autoscroll
font size
0
reset
transpose
0
reset
display chords
guitar tuner
edit
Autoscroll
slow
fast
+/-
esc
set tempo
stop
Strumming
There is no strumming pattern for this song yet. and get +5 IQ
Esta es mi primera transcripción asi que puede tener errores.
Igualmente suena bien.


Introducción: (Repite dos veces lo mismo)

e -----8---10--8--10-12---13-12---10-8-----8-10---8-8--
B --8------------------------------------8-------------
G -----------------------------------------------------
D -----------------------------------------------------
A -----------------------------------------------------
E -----------------------------------------------------


(Otra forma de la misma introducción)

e -----------------0---1-0----------------------
B -----1---3--1--3-----------3-1-----1-3---1-1--
G --0------------------------------0------------
D ----------------------------------------------
A ----------------------------------------------
E ----------------------------------------------


F                Am              F
  No me importa nada, nada nada
                  C
cuando estoy con vos
F               Am             F       (I)
  No me falta nada, nada nada
              C
si tengo tu amor


F                      Am      F
  Cuando pierdo la esperanza
                  Am    F
y no puedo ver el sol
                   Am       Em
cuando reina la nostalgia
                  G
dentro de mi corazón


F                     Am      F
  Cuando no pasan las horas
                   Am    F
cuando tengo mal humor
                     Am     Em
si me pierdo en el camino
                    G
solo canto esta canción


Repite (I)


Si doy vueltas en la cama
junto con mi soledad
yo me voy con mi guitarra
a cantar por la ciudad


Repite (I)


Son las seis y subo a un taxi
sin saber a donde ir
voy dejando atrás en cada esquina
los fantasmas que hubo en mi


Estoy sentada en el cordón de la vereda
no me canso de esperar
con los ojos fijos en tu puerta
solo dame una señal


Repite (I)

            
            
Suggest correction
Creating personal tab
Creating personal tab
You can edit any tab online and save it as your Personal.

You can edit, replace or remove any tab part or add personal notes – all changes will be seen only by you.

Personal tabs can be accessed anytime from any device, even offline.
Learn more »
Give kudos to tab author, rate the tab!
1 2 3 4 5
comments
print report bad tab
guest
Wanna post a correction for this tab? Suggest correction