Oops, an error
Loading. Please wait.

Verdadero Amor tab

version 2
version 2

Whole song

by Riddim
12 views 1 this week
no commentswrite comment
1 2 3 4 5
3 more votes to show rating
add to favorites
×
Save as Personal and add changes to this tab that will be seen only by you. Learn more ›
×
You can save this tab as Personal to edit and correct it or add notes. All changes will be seen only by you. Learn more »
launch autoscroll
font size
0
reset
how to read this tab
guitar tuner
edit
Autoscroll
slow
fast
+/-
esc
set tempo
stop
intro:riff

Dm          C            Bb
si puedo cantar te quiero dar
        A     C     Dm
algo de mi inspiracion
           C              Bb
gracias te doy,por lo que soy
     A   C
por dar
Dm                 C             Bb
sigo teniendo esperanzas voy a creer
          A      C       Dm
que hoy puedo contar con vos
             C            Bb
yo se que estas,yo se que vas
   A  C
A dar
Dm       C            Bb
el mundo va sin direccion
         A      C      Dm
y no me siento solo hoy
            C              Bb
se que esta ves vas a entender
   A   C
y dar

Bb               D             C  A
amor verdadero amor te quiero dar
Bb               D             C  A
amor verdadero amor te quiero dar

vientos


si puedo cantar te quiero dar
algo de mi inspiracion
gracias te doy por lo que soy
por dar
el mundo va sin direccion
y no me siento solo hoy
yo se que estas yo se que vas
A dar

amor verdadero amor te quiero dar
amor verdadero amor te quiero dar   X2

riff:

e---------------------------------
B----6-5--------6-5---8---8-8-8---
G--7-----5-7--------5-------------
D---------------------------------
A---------------------------------
E---------------------------------

e-----------------------------
B-8/9/8---8/9/8-6-8/10-8------
G-------9----------------10-7-
D-----------------------------
A-----------------------------
E-----------------------------

e-------------------------------
B------8-10-8----8-10-8-6-8-----
G-8-10--------10------------10--
D-------------------------------
A-------------------------------
E-------------------------------

e-13-----------------------------
B----13/14/13-----13/14/13-------
G--------------14----------14-13-
D--------------------------------
A--------------------------------
E--------------------------------

e-------------------------------------------
B-------12----------------------------------
G-13-14----14-13-11-9-11-13-11/13/11-9-11-9-
D-------------------------------------------
A-------------------------------------------
E-------------------------------------------

ESPERO QUE ESTE BIEN SI NO ESCRIBAN A NONIMAN_17@
PARA CORREGIRME

            
            
Suggest correction
Creating personal tab
Creating personal tab
You can edit any tab online and save it as your Personal.

You can edit, replace or remove any tab part or add personal notes – all changes will be seen only by you.

Personal tabs can be accessed anytime from any device, even offline.
Learn more »
Give kudos to tab author, rate the tab!
1 2 3 4 5
comments
print report bad tab
guest
Wanna post a correction for this tab? Suggest correction