Oops, an error
Loading. Please wait.

Alas Del Mal bass

by Riff
46 views 1 this week
no commentswrite comment
1 2 3 4 5
3 more votes to show rating
add to favorites
×
Save as Personal and add changes to this tab that will be seen only by you. Learn more ›
×
You can save this tab as Personal to edit and correct it or add notes. All changes will be seen only by you. Learn more »
launch autoscroll
font size
0
reset
guitar tuner
edit
Autoscroll
slow
fast
+/-
esc
set tempo
stop
Espera 2 vueltas de la bateria. Despues:

           (7 vueltas)                                 ?Cuando el?
G|-------------------------------|-------------------------------
D|-------------------------------|-------------------------------
A|-----7-----7-----7-----7----7--|-----7-----7-----7-----7----2--
E|-0-0---0-0---0-0---0-0---------|-0-0---0-0---0-0---0-0---------


?viento se agita entre las alas del mal, y mi?  \
G|-------------------------------------------|  |
D|----------------------------------------2--|  |
A|-4------2--4------2--4-------2--1----------|  |
E|----------------------------------2-0-2----|  |
                                                | Parte
?alma este en calma dejare de pensar, debe ser? |   A
G|-------------------------------------------|  |
D|-------------------------------------------|  |
A|-4------2--4------2--4-------2--1----------|  |
E|----------------------------------2---2----|  |
                                                /

Repite parte A. Despues:

            (3 veces)
?chino te ofrecere                  ?musica superior?
G|------------------------------|----------------------------------
D|----7-------------------------|----7----------------------------- Parte
A|-5-----0-5-6-7--7-7-7-7-7-7-7-|-5-----0-0-0-2--2-2-2-2-2-2-2-2-?-   B
E|------------------------------|----------------------------------

1:27       (5 vueltas)
G|-------------------------------|-------------------------------
D|-------------------------------|------------------------------- Parte
A|-----7-----7-----7-----7----7--|-----7-----7-----7-----7----2--   C
E|-0-0---0-0---0-0---0-0---------|-0-0---0-0---0-0---0-0---------

Repite parte A (2 veces), B. Despues:

2:38        (8 veces)
G|-----------------------------|------------------------
D|-------------------7-7-7-----|------------------------
A|-7--7-7-7-7-7-5--0-------5-6-|------------------------
E|-----------------------------|-7--7-7-7-7-7-5--4-5--5-

           (3 veces)
G|------------------------------|----------------------------------
D|------------------------------|----------------------------------
A|-5--0--0-5-6-7--7-7-7-7-7-7-7-|-5--0--0-0-0-2--2-2-2-2-2-2-2-2-?-
E|------------------------------|----------------------------------

Repite parte C, A (2 veces), B. Despues:

           (4 veces)
G|-----------------------------|-----------------------------------------------
D|-------------------7-7-7-----|-----------------------------------------------
A|-7--7-7-7-7-7-5--0-------5-6-|--------------------------5--0--0-5-6-7--------
E|-----------------------------|-7--7-7-7-7-7-5--4-5--5------------------------

Atencion: La afinacion de este tema esta medio semitono mas grave que
la comun (La 440)


Alas del mal (Pappo)

Cuando el viento se agita, entre las alas del mal
y mi alma entre tu alma dejaré de pensar
diré ser profundo, si obtuvo una razón
pasado de este mundo, donde el resto soy yo

Un barrio chino te ofreceré
en donde nadie se tenga fe
donde todos canten en sol
y tengan música en su interior

Ven por favor, no me hagas esperar
aparte de todo esto, yo te quiero mostrar
vecinos orientales que confían en su ser
y mágicas personas que preguntan, quién es usted?

Mientras su musica se siga tocando y escuchando el carpo jamas morira,
vivira eternamente en la memoria de todos.

            
            
Suggest correction
Creating personal tab
Creating personal tab
You can edit any tab online and save it as your Personal.

You can edit, replace or remove any tab part or add personal notes – all changes will be seen only by you.

Personal tabs can be accessed anytime from any device, even offline.
Learn more »
Give kudos to tab author, rate the tab!
1 2 3 4 5
comments
print report bad tab
guest
Wanna post a correction for this tab? Suggest correction