Oops, an error
Loading. Please wait.

Betty Silicona chords

by Riff
66 views 1 this week
no commentswrite comment
1 2 3 4 5
2 more votes to show rating
add to favorites
×
Save as Personal and add changes to this tab that will be seen only by you. Learn more ›
×
You can save this tab as Personal to edit and correct it or add notes. All changes will be seen only by you. Learn more »
launch autoscroll
font size
0
reset
transpose
0
reset
simplify chords
display chords
guitar tuner
edit
Autoscroll
slow
fast
+/-
esc
set tempo
stop
Strumming
There is no strumming pattern for this song yet. and get +5 IQ
  Intro: Riff 1

  (Con Riff E)
  Betty silicona ronda por la zona D,
  guía el eco de sus pasos Boris, de la KGB

  A5
  Ella es todo un sensorama
  pero viste un microfilm,
 
  Riff E
  de un descuido del otro lado del Rhin

  D5-B5
     Betty nació para el amor
  D5-B5
  para nada convencional,
  D5-B5
     Betty nació para el amor,
  D5-B5             E
     para el amor final
  
  Riff 2
 
  (misma estructura)
  Maquillada de champagne
  ya se olvidó de él,
  ya maquina nuevos planes en Roxyy Hotel
  Ella no puede hacerlo
  sin su película de espías,
  yo sólo quiero hacerla esta noche mía

  Betty nació para el amor, para neda convencional,
  Betty nació para el amor, para el amor final.

  Riff 1
  1|-------------------------|
   |--9--9--9--9--9--9--9--9-|
   |--9--9--9--9--9--9--9--9-|
   |--9--9--9--9--9--9--9--9-|
   |-------------------------|
  6|-------------------------|

  Riff E
  1|--------------------------|
   |--------------------------|
   |--------------------------|
   |--------------------------|
   |------2--4--5--4--5-------|
  6|-0-------------------3--0-| 

  Riff 2
  1|-----------------------------------------|
   |-----------------------------------------|
   |--9-12-12-9---12-12-12-12-9---12-12-9-9--|
   |--9-12-12-9---12-12-12-12-9---12-12-9-9--|
   |-----------------------------------------|
  6|-----------------------------------------|

            
            
Suggest correction
Creating personal tab
Creating personal tab
You can edit any tab online and save it as your Personal.

You can edit, replace or remove any tab part or add personal notes – all changes will be seen only by you.

Personal tabs can be accessed anytime from any device, even offline.
Learn more »
Give kudos to tab author, rate the tab!
1 2 3 4 5
comments
print report bad tab
guest
Wanna post a correction for this tab? Suggest correction