Oops, an error
Loading. Please wait.

Dios Devorador bass

by Riff
77 views 1 this week
no commentswrite comment
1 2 3 4 5
3 more votes to show rating
add to favorites
×
Save as Personal and add changes to this tab that will be seen only by you. Learn more ›
×
You can save this tab as Personal to edit and correct it or add notes. All changes will be seen only by you. Learn more »
launch autoscroll
font size
0
reset
guitar tuner
edit
Autoscroll
slow
fast
+/-
esc
set tempo
stop
---------------------------------------(15 veces)
            (4 veces)          ?Pobre Dios devorador, perdio??
G|----------------------------|---------------------------|
D|----------------------------|---------------------------|
A|----------------------------|---------------------------|
E|-0----2----3----5----5-6-7--|-0--0---0---0--0---2h3-3-2-|
         (2 veces)
G|--------------------------|---------------------------------------------|
D|--------------------------|---------------------------------------------|
A|--------------------------|---------------------------------------------|
E|-0--0---0---0--0---0-0-0--|-5------7--8------7--0--0---0---0--0---0-0-0-|
                               (15 veces)
                       ?Enigmas que ahora están??
G|--------------------|--------------------------|
D|--------------------|--------------------------|
A|--------------------|--------------------------|
E|-5------7--8------7-|-0--0---0---0--0--2h3-3-2-|
         (2 veces)
G|--------------------------|---------------------------------------------|
D|--------------------------|---------------------------------------------|
A|--------------------------|---------------------------------------------|
E|-0--0---0---0--0---0-0-0--|-5------7--8------7--0--0---0---0--0---0-0-0-|
                               (15 veces)
                       ?Con quien nos vamos a encontrar??
G|--------------------|--------------------------|
D|--------------------|--------------------------| h:hammer on (ligado)
A|--------------------|--------------------------|
E|-5------7--8------7-|-0--0---0---0--0--2h3-3-2-|

Dios devorador (Pappo - Moro)

Escucho el grito, ensordecedor desde el infinito;
el Dios cae, y las antiguas remiendas desaparecen;
aquella máquina ya no funcionaba,
pero había terminado con la especie humana.

Pobre Dios devorador,
perdió totalmente el control,
ya no es el más devorador,
electrográfico.

Dios devorador, Dios devorador.

En esta noche infernal,
de tormentos prisioneros de sol,
quién eres tú, devorador,
sólo una sugestión.

Dios devorador, Dios devorador.

Enigmas que ahora están,
magníficas de solución;
en el cristal de tu ambición,
sólo una reflexión.

Dios devorador, Dios devorador.

Con quién nos vamos a encontrar,
en este nuevo amanecer;
solos tú y yo, en un lugar,
electrográfico.

Mientras su musica se siga tocando y escuchando el carpo jamas morira,
vivira eternamente en la memoria de todos...
e-mail: zarathustra4321@

            
            
Suggest correction
Creating personal tab
Creating personal tab
You can edit any tab online and save it as your Personal.

You can edit, replace or remove any tab part or add personal notes – all changes will be seen only by you.

Personal tabs can be accessed anytime from any device, even offline.
Learn more »
Give kudos to tab author, rate the tab!
1 2 3 4 5
comments
print report bad tab
guest
Wanna post a correction for this tab? Suggest correction