Oops, an error
Loading. Please wait.

Duro Invierno bass

by Riff
25 views 1 this week
no commentswrite comment
1 2 3 4 5
3 more votes to show rating
add to favorites
×
Save as Personal and add changes to this tab that will be seen only by you. Learn more ›
×
You can save this tab as Personal to edit and correct it or add notes. All changes will be seen only by you. Learn more »
launch autoscroll
font size
0
reset
guitar tuner
edit
Autoscroll
slow
fast
+/-
esc
set tempo
stop
                       (3 veces)
G|---------------------------------------------------------|
D|---------------------------------------------------------| Parte
A|-5-5-5-0------0-2-2-2-------------0-5-4--2-0-2------2--4-|   A
E|----------------------2------2-3-------------------------|

                       (2 veces)
?En este momento,la noche ha caido,nadie respira por mi?
G|------------------------------------------------------|
D|------------------------------------------------------| Parte
A|-5---5-4------5-0-5-4------5-0-5-4---2-0-2------2--4--|   B
E|------------------------------------------------------|

 ?soy un caminante,         nocturno?
G|----------------------------------------------------
D|----------------------------------------------------
A|-5-----0-0-5---4---------4---2-----2-2-2---2---2--4-
E|---------------------4-4---4------------------------

?y soy amante,        del metal?
G|----------------------------------------------------
D|----------------------------------------------------
A|-5-----0-0-5---4---------4---2-----2-----2-----2----
E|---------------------4-4---4------------------------

Repite parte A (1 vuelta), B. Después:

?el asfalto esta cada vez mas duro?
G|----------------------------------------------------
D|----------------------------------------------------
A|-5-----0-0-5---4---------4---2---------2---2---2--4-
E|---------------------4-4---4-------4-4---4----------

?pero yo,            camino igual?
G|----------------------------------------------------
D|----------------------------------------------------
A|-5-----0-0-5-0-4---------4---2-----2-----2-----2--4-
E|---------------------4-4---4------------------------

Repite parte A (2 vueltas). Despues:

G|----------------------------------------------------
D|----------------------------------------------------
A|-5-----0-0-5-0-4---------4---2-----2-----2-----2--4-
E|---------------------4-4---4------------------------

G|----------------------------------------------------
D|----------------------------------------------------
A|-5-----0-0-5-0-4---------4---2-----2-----2----------
E|---------------------4-4----------------------------

Repite parte A (2 vueltas), B. Despues:

?soy un caminante,         nocturno?
G|----------------------------------------------------
D|----------------------------------------------------
A|-5-----0-0-5---4---------4---2---2-2-2--2-2-2--2--4-
E|---------------------4-4----------------------------

?y soy amante,        del metal?
G|----------------------------------------------------
D|----------------------------------------------------
A|-5-----0-0-5---4---------4---2---2-2-2---2----------
E|---------------------4-4---4------------------------

Final
G|----------------------------------------------------
D|----------------------------------------------------
A|-5-5-5-0----------------------2---------------------
E|----------------------------------------------------

Duro invierno (Pappo)

En este momento,
la noche ha caído,
y nadie respira por mí;
no-oh, no-oh, no, nadie por mí.

Soy un caminante nocturno,
y soy amante del metal.

Me busco a mí mismo,
caído en un abismo,
y escucho cantar mi canción;
oh-oh, oh-oh, oh, cantar mi canción.

El asfalto está cada vez más duro,
pero yo camino igual.

            
            
Suggest correction
Creating personal tab
Creating personal tab
You can edit any tab online and save it as your Personal.

You can edit, replace or remove any tab part or add personal notes – all changes will be seen only by you.

Personal tabs can be accessed anytime from any device, even offline.
Learn more »
Give kudos to tab author, rate the tab!
1 2 3 4 5
comments
print report bad tab
guest
Wanna post a correction for this tab? Suggest correction