Oops, an error
Loading. Please wait.

En Un Harem De Agadir bass

by Riff
52 views 1 this week
no commentswrite comment
1 2 3 4 5
3 more votes to show rating
add to favorites
×
Save as Personal and add changes to this tab that will be seen only by you. Learn more ›
×
You can save this tab as Personal to edit and correct it or add notes. All changes will be seen only by you. Learn more »
launch autoscroll
font size
0
reset
guitar tuner
edit
Autoscroll
slow
fast
+/-
esc
set tempo
stop
?Ella fue princesa, en un harem de Agadir?                  \
G|---------------------------------------------------       |
D|---------------------------------------------------       |
A|-0-0-0-0-0-0-0-0-0-0-0-0-0-0-0-0-0-0-0-0-0-0-0-0-?-       |
E|---------------------------------------------------       |
                                                            |
     ?se paso de largo, ya no era el mismo?                 |
G|------------------------------------------------------    |
D|------------------------------------------------------    | Parte
A|----------1--3--3-3-3-3-3-----------1--3--4-3-1-3-4-3-    |  A
E|-3--3-3-3------------------3--3-3-3-------------------    |
                                                            |
     ?con precipitacion se fue acercando al abismo?         |
G|------------------------------------------------------    |
D|------------------------------------------------------    |
A|----------1--3--3-3-3-3-3-----------1--3--4-3-1-3-----    |
E|-3--3-3-3------------------3--3-3-3-------------------    /


Repite parte A. Despues:

                  (3 veces)
  ?ahaaaaa?     ?ahaaaaa?
G|-------------------------------------------|----------------------
D|-------------------------------------------|---------------------- Parte
A|-------------------------------------------|----------------------   B
E|-6---6--6-6-6--3--3-3-3-3-3-3-3-3-3-3-3-3-3|-6---6--6-6-6--8------

Repite parte A (2 veces), B. Despues:

Final
G|-------------------------------------------------------------
D|-------------------------------------------------------------
A|-5---4---2-----------2---------------------------------------
E|-------------3---4---------0---------------------------------

En un harem de Agadir (Boff-Pappo-Peyronel-Vitico)

Ella fue princesa en un harem de agadir,
hasta que una noche conoció a Lalo Mir;
se pasó de largo, ya no era el mismo,
con precipitación se fue acercando al abismo.

Como a la semana, tendía a desaparecer,
parece que el humano no tenía qué hacer;
la descuartizaba en la pieza del fondo,
y la cocinaba en su propio horno.

Ah...ah..., ah...ah...
Ah...ah..., ah...ah...

Estaba algo cambiada, no lo podía ver,
faltaba parte de su cuerpo, no lo podía creer;
se pasó de largo, ya no era el mismo,
con precipitación se fue acercando al abismo.

Ah...ah..., ah...ah...
Ah...ah..., ah...ah...

Mientras su musica se siga tocando y escuchando el carpo jamas morira,
vivira eternamente en la memoria de todos.

            
            
Suggest correction
Creating personal tab
Creating personal tab
You can edit any tab online and save it as your Personal.

You can edit, replace or remove any tab part or add personal notes – all changes will be seen only by you.

Personal tabs can be accessed anytime from any device, even offline.
Learn more »
Give kudos to tab author, rate the tab!
1 2 3 4 5
comments
print report bad tab
guest
Wanna post a correction for this tab? Suggest correction