Oops, an error
Loading. Please wait.

Estamos Hartos bass

by Riff
59 views 1 this week
no commentswrite comment
1 2 3 4 5
3 more votes to show rating
add to favorites
×
Save as Personal and add changes to this tab that will be seen only by you. Learn more ›
×
You can save this tab as Personal to edit and correct it or add notes. All changes will be seen only by you. Learn more »
launch autoscroll
font size
0
reset
guitar tuner
edit
Autoscroll
slow
fast
+/-
esc
set tempo
stop
G|---------------------------------------------------------
D|---------------------------------------------------------
A|---------------------------------------------------------
E|-0----------------0-0-----------------0------------------

?Estamos hartos, de tanta presion, de tanta envidia?                 \
G|---------------------------------------------------------          |
D|---------------------------------------------------------          |
A|-0-0-0-0-0-0-0-0-0-0-0-0-0-0-0-0-0-0-0-0-0-0-0-0-0-0-0-?-          |
E|---------------------------------------------------------          |
                                                                     | Parte
?cuando estes sola y nadie?     ?piense en ti?                       |   A
G|----------------------------------------------------------------   |
D|----------------------------------------------------------------   |
A|-3-3-3-3-3-3-3-3-3-3-3-3-3-3-3-3-5-5-5-5-5-5-5-5-5-5-5-5-5-5-5-5   |
E|----------------------------------------------------------------   /

              (4 veces)
?vacio?
G|-----------------------------------|
D|-----------------------------------| Parte
A|-3---------------------------------|   B
E|-----5--3--1---1-1|1|1-1|1|1-1|1|1-|

Repite parte A, B. Despues:

            (4 veces)                       (4 veces)
G|------------------------------|-------------------------------|
D|------------------------------|-------------------------------| Parte
A|------------------------------|-------------------------0-2-0-|   C
E|-0-0---0-0---0-0--0-0-0-3-5-3-|-2-2---2-2---2-2---2-2-2-------|

Repite parte C, A. Despues:

              (3 veces)
?vacio?                              ?dos?        ?en dos!?
G|-----------------------------------|-----------------------------------------
D|-----------------------------------|-----------------------------------------
A|-3---------------------------------|-3---------------------------------------
E|-----5--3--1---1-1|1|1-1|1|1-1|1|1-|-----5--3--1--------0-0---0-0---0-0------

x|x : tocar las dos notas consecutivamente rápido por Ej. 1|1

Estamos hartos (Boff-Pappo-Peyronel-Vitico)

Estamos hartos de tanta presión,
de tanta envidia y difícil situación;
todo está atascado a mi alrededor,
la magia no viaja, sin ninguna explicación.

Cuando estés sola y nadie piense en ti;
vacío... la falta de amor te partirá en dos.

Este teatro no es normal,
vivo encerrado en mí, trato de no pensarlo;
todo se presta a la confusión,
pierde su magia, pierde su resplandor.

Como fantasmas en su baile ritual,
se excitan... sienten placer al castigo,
son como cuerpos dormidos.

Cuando la fama se apodere de ti,
para saborearla en tu honor harán un gran festín;
pero tu alma se diluye ante mí,
y sin darte cuenta, es el fin de un sucio plan.

Cuando estés sola y nadie piense en ti;
vacío... la falta de amor te partirá en dos...
en dos!.

Mientras su musica se siga tocando y escuchando el carpo jamas morira,
vivira eternamente en la memoria de todos.

            
            
Suggest correction
Creating personal tab
Creating personal tab
You can edit any tab online and save it as your Personal.

You can edit, replace or remove any tab part or add personal notes – all changes will be seen only by you.

Personal tabs can be accessed anytime from any device, even offline.
Learn more »
Give kudos to tab author, rate the tab!
1 2 3 4 5
comments
print report bad tab
guest
Wanna post a correction for this tab? Suggest correction