Oops, an error
Loading. Please wait.

Ex-Terminador bass

by Riff
65 views 1 this week
no commentswrite comment
1 2 3 4 5
3 more votes to show rating
add to favorites
×
Save as Personal and add changes to this tab that will be seen only by you. Learn more ›
×
You can save this tab as Personal to edit and correct it or add notes. All changes will be seen only by you. Learn more »
launch autoscroll
font size
0
reset
guitar tuner
edit
Autoscroll
slow
fast
+/-
esc
set tempo
stop
0:12
G|---------------------------------------------------------------
D|--------------------------------------------------------------- Parte
A|-0-0-0-0-0-0-0-0-0-0-0-0-0-0-0-0-0-0-0-0-0-0-0-0-0-0-0-0-0-0-?-   A
E|---------------------------------------------------------------

                           (2 veces)
  ?ex?          ?terminador?     ?no tiene miedo a su suerte?
G|--------------------------------------------------------------|
D|--------------------------------------------------------------| Parte
A|-0-0-0-0-0-0-0-0-0-0-0-0-0-0-0-0-0-0-0-0-0-0-0-0------5--5-5-5|   B
E|-------------------------------------------------3--3---------|

Repite parte A, B. Despues:

               (4 veces)
G|------------------------------------|
D|------------------------------------| Parte
A|--------------------------------5--7|   C
E|-0-2-3-0-2-3-0-2-3-0-2-3-0-2-3------|

Repite parte A, B (4 veces), A, C. Despues:

   (2 veces)
G|------------|-------------------------------------------------
D|------------|-------------------------------------------------
A|-5----------|-5-----------------------------------------------
E|----3--3-3-3|----3--3-3-5-------------------------------------

Ex-terminator (Pappo-Vitico)

Camina solamente de noche,
porque la luz del día le hace mal;
refleja el brillo de sus ojos
en todo lo que sea mortal.

Su sangre es de color diferente,
circuitos integrados regulan su acción;
no cree en la bondad de la gente,
es único y se llama el Ex - terminador.

Ex - terminador, no tiene miedo a su suerte;
Ex - terminador, su único Dios es la muerte.

Acaba de llegar hace poco
de un mundo lejano dónde no hay amor;
espera de hace tiempo el momento,
de recibir su orden y entrar en acción.

Ex - terminador, no tiene miedo a su suerte;
Ex - terminador, su único Dios es la muerte.

Estuvo en el infierno y el cielo,
y no se quedó en ninguno de los dos;
volvió para vestirse de negro,
y de una vez por todas entrar en acción.

Ex - terminador, no tiene miedo a su suerte;
Ex - terminador, su único Dios es la muerte.


Mientras su musica se siga tocando y escuchando el carpo jamas morira,
vivira eternamente en la memoria de todos.

            
            
Suggest correction
Creating personal tab
Creating personal tab
You can edit any tab online and save it as your Personal.

You can edit, replace or remove any tab part or add personal notes – all changes will be seen only by you.

Personal tabs can be accessed anytime from any device, even offline.
Learn more »
Give kudos to tab author, rate the tab!
1 2 3 4 5
comments
print report bad tab
guest
Wanna post a correction for this tab? Suggest correction