Oops, an error
Loading. Please wait.

Juegos Nocturnos bass

by Riff
80 views 1 this week
no commentswrite comment
1 2 3 4 5
3 more votes to show rating
add to favorites
×
Save as Personal and add changes to this tab that will be seen only by you. Learn more ›
×
You can save this tab as Personal to edit and correct it or add notes. All changes will be seen only by you. Learn more »
launch autoscroll
font size
0
reset
guitar tuner
edit
Autoscroll
slow
fast
+/-
esc
set tempo
stop
0:54                      (2 vueltas)
?No temas, que esto va empezar?
G|--------------------------------------------------------------| Parte
D|-----9-----10-------9-----10-------9-----10------12------14---|   A
A|-0-7---0-8------0-7---0-8------0-7---0-8----0-10----0-12------|
E|--------------------------------------------------------------|

Parte B
?juegos al borde?   ?de la realidad?                       ?juegos nocturnos?
G|------7-7--7------------------------------------------------7-7--7-----------
D|----7-------7-------5-7-----9-----10------12------12------7-------7-------5-7
A|-5-----------5--5-7-----0-7---0-8----0-10----0-12------5-----------5--5-7----
E|-----------------------------------------------------------------------------

Repite parte A. Depues:

?en el sueño de un sueño te encontrare?                                \
G|------------------------------------------------------               |
D|------------------------------------------------------               |
A|----------------------------3|3--5--0-0---3--0-0--0-0-               |
E|-3-3-3-3-3-3-3-3-1-1-1-1-1-1--------------------------               |
                                                                       |Parte C
?y tu pesadilla sera la mia?                                           |
G|-----------------------------------------------5-------------------  |
D|---------------------------------------------5---5-----------------  |
A|---------------------------------3-3-3-3-3-3-------3-3-3-3-3-3-3-3-  |
E|-3-3-3-3-3-3-3-3-1-1-1-1-1-1-1-1-----------------------------------  |
                                                                       /

?en el sueño de un sueño te encontrare?                     ?y te tomare?
G|-----------------------------------------------------------------------------
D|-----------------------------------------------------------------------------
A|----------------------------3|3--5-0-0-0---3--0-0--0-0-----------------------
E|-3-3-3-3-3-3-3-3-1-1-1-1-1-1---------------------------3-3-3-3-3-3-3-3-1-----

Repite parte A, B, A. Despues:
Durante el solo de guitarra: repite parte C. Despues:
                                                                   \
G|-------------------------------------------------------          |
D|-------------------------------------------------------          |
A|----------------------------3|3--5-0-0-0---3--0-0--0-0-          |
E|-3-3-3-3-3-3-3-3-1-1-1-1-1-1---------------------------          |  Parte
                                                                   |    D
G|---------------------------------------------------------------  |(3 veces)
D|---------------------------------------------------------------  |
A|---------------------------------3-3-3-3-3-3-3-3-3-3-3-3-3-3-3-  |
E|-3-3-3-3-3-3-3-3-1-1-1-1-1-1-1-1-------------------------------  |
                                                                   /

4:00
?en el sueño de un sueño te tomare?
G|-------------------------------------------------------
D|-------------------------------------------------------
A|----------------------------3|3--5-0-0-0---3--0-0--0-0-
E|-3-3-3-3-3-3-3-3-1-1-1-1-1-1---------------------------

?y te tomare hasta el dia?
G|-------------------------------------------------------------
D|-------------------------------------------------------------
A|---------------------------------3-3-3-3-3-3-3-3-3-3-3-3-----
E|-3-3-3-3-3-3-3-3-1-1-1-1-1-1-1-1-------------------------5---

                            (4 veces)
oh?                    ?juegos nocturnos?
G|-----------------------------------------------------------------|
D|-----------------------------------------------------------------|
A|-----------------------------------------------------------------|
E|-1-1-1-1-1-1-1-1-1-1-1-1-1-1-1-1-5-5-5-5-5-5-5-5-5-5-5-5-5-5-5-5-|

?en el sueño de un sueño te encontrare
G|-------------------------------------------------------
D|-------------------------------------------------------
A|----------------------------3|3--5-0-0-0---3--0-0--0-0-
E|-3-3-3-3-3-3-3-3-1-1-1-1-1-1---------------------------

?y tu pesadilla sera la mia?
G|-----------------------------------------------------------5---
D|--------------------------------------------------------5------
A|---------------------------------3-3-3-3-3-3-3-3-3-3-3---------
E|-3-3-3-3-3-3-3-3-1-1-1-1-1-1-1-1-------------------------------

?en el sueño de un sueño te encontrare?                     ?y te tomare?
G|-----------------------------------------------------------------------------
D|-----------------------------------------------------------------------------
A|----------------------------3|3--5-0-0-0---3--0-0--0-0-----------------------
E|-3-3-3-3-3-3-3-3-1-1-1-1-1-1---------------------------3-3-3-3-3-3-3-3-1-----

Final
G|--------------------------------------------------------------
D|-----9-----10-------9-----10-------9-----10------12------14---
A|-0-7---0-8------0-7---0-8------0-7---0-8----0-10----0-12------

E|--------------------------------------------------------------------
G|--------------------------------------------------------------------
D|-----9-----10-------9-----10-------9-----10------12------14---------
A|-0-7---0-8------0-7---0-8------0-7---0-8----0-10--------------------
E|--------------------------------------------------------------------

x |x : tocar las dos notas consecutivamente rápido por Ej. 3|3


Juegos nocturnos (Michel - Vitico)

Encuentros en la oscuridad,
comienza tu aventura;
noche sin luna, pero sé que estás,
como ninguna, ninguna.

No temas, esto va a empezar;
no hay reglas, ni salida,
juegos al borde de la realidad.
juegos nocturnos, nocturnos.

En el sueño de un sueño te encontraré
y tu pesadilla será la mía,
en el sueño de un sueño te tomaré,
y te tomaré.

Viajemos por la oscuridad,
con ritmo de locura;
juegos del mundo de las sombras,
juegos nocturnos, nocturnos.

En el sueño de un sueño te encontraré
y tu pesadilla será la mía,
en el sueño de un sueño te tomaré,
y te tomaré hasta el día.

Uh, juegos nocturnos,
uh, juegos nocturnos,
uh, juegos nocturnos.

En el sueño de un sueño te encontraré
y tu pesadilla será la mía,
en el sueño de un sueño te tomaré,
te tomaré... hasta el día.


Mientras su musica se siga tocando y escuchando el carpo jamas morira,
vivira eternamente en la memoria de todos.

            
            
Suggest correction
Creating personal tab
Creating personal tab
You can edit any tab online and save it as your Personal.

You can edit, replace or remove any tab part or add personal notes – all changes will be seen only by you.

Personal tabs can be accessed anytime from any device, even offline.
Learn more »
Give kudos to tab author, rate the tab!
1 2 3 4 5
comments
print report bad tab
guest
Wanna post a correction for this tab? Suggest correction