Oops, an error
Loading. Please wait.

La Espada Sagrada bass

by Riff
224 views 6 this week
no commentswrite comment
1 2 3 4 5
3 more votes to show rating
add to favorites
×
Save as Personal and add changes to this tab that will be seen only by you. Learn more ›
×
You can save this tab as Personal to edit and correct it or add notes. All changes will be seen only by you. Learn more »
launch autoscroll
font size
0
reset
guitar tuner
edit
Autoscroll
slow
fast
+/-
esc
set tempo
stop
?Bautizan a un niño en el nombre?? (despues de la 2da vuelta)
                       x4
G|-----------------------------------------------|
D|-----------------------------------------------|
A|-0--0-0-0-0-0--0--0-0-0-0----------------------|
E|-------------------------1--1-1-1-1-3--3-3-3-3-|

?Los Pastores advierten un don especial que viene a salvar nuestro mundo?
G|-------------------------------------------------------------------|
D|-------------------------------------------------------------------|
A|-------------------------------------------------------------------|
E|-1--1-1-1-1-3--3-3-3-3-5--5-5-5-5-1--1-1-1-1-1--1-1-1-1-3--3-3-3-3-|

G|---------------------------------|
D|---------------------------------|
A|-0-0-0-0-0-0-0-0-0-0-0-0-0-0-0-0-|
E|---------------------------------|

?Entonces comunican a la humanidad la noticia se expande??
                       x2
G|-----------------------------------------------|
D|-----------------------------------------------|
A|-0--0-0-0-0-0--0--0-0-0-0----------------------|
E|-------------------------1--1-1-1-1-3--3-3-3-3-|

?Después de medianoche escucho la información entonces prepara su fuga?
G|-------------------------------------------------------------------|
D|-------------------------------------------------------------------|
A|-------------------------------------------------------------------|
E|-1--1-1-1-1-3--3-3-3-3-5--5-5-5-5-1--1-1-1-1-1--1-1-1-1-3--3-3-3-3-|

                x2
G|---------------------------------|
D|---------------------------------|
A|-0-0-0-0-0-0-0-0-0-0-0-0-0-0-0-0-|
E|---------------------------------|

         (durante el solo de guitarra) x2
G|--------------------------------------------------------------|
D|--------------------------------------------------------------|
7|----------------7-7-7-7-7-7-7-7---------------7-7-7-7-7-7-7-7-|
E|-0-0-0-0-0-0-0-0---------------0-0-0-0-0-0-0-0----------------|

?Sabia que algun dia el mundo iba a estallar??
                       x2
G|-----------------------------------------------|
D|-----------------------------------------------|
A|-0--0-0-0-0-0--0--0-0-0-0----------------------|
E|-------------------------1--1-1-1-1-3--3-3-3-3-|

?Su espada sagrada brillo una vez mas, dispuesta a dar su vida por mi?
G|-------------------------------------------------------------------|
D|-------------------------------------------------------------------|
A|-------------------------------------------------------------------|
E|-1--1-1-1-1-3--3-3-3-3-5--5-5-5-5-1--1-1-1-1-1--1-1-1-1-3--3-3-3-3-|

               x4                     x4
G|---------------------------------|---------|
D|---------------------------------|---------|
A|-0-0-0-0-0-0-0-0-0-0-0-0-0-0-0-0-|-3-------|
E|---------------------------------|---0-0-0-|

La espada sagrada (Riff)

Bautizan a un niño
en el nombre de Dios
descubren que tiene
un ser superior
Los Pastores advierten
un don especial
que viene a salvar
nuestro mundo.

Entonces comunican
a la humanidad
la noticia se expande
por todo el lugar
Después de medianoche
se escucho la información
entonces prepara
su fuga

Sabia que algún día
el mundo iba a estallar
Que culminaria
en una destrucción total
Su espada sagrada
brilló una vez más
dispuesta a dar su vida
por mi

Mientras su musica se siga tocando y escuchando el carpo jamas
morira, vivira eternamente en la memoria de todos...
Aquellos bajistas que le guste la musica de Pappo y del Flaco
Spinetta (de los 70´) me pueden escribir al e-mail:
zarathustra4321@

            
            
Suggest correction
Creating personal tab
Creating personal tab
You can edit any tab online and save it as your Personal.

You can edit, replace or remove any tab part or add personal notes – all changes will be seen only by you.

Personal tabs can be accessed anytime from any device, even offline.
Learn more »
Give kudos to tab author, rate the tab!
1 2 3 4 5
comments
print report bad tab
guest
Wanna post a correction for this tab? Suggest correction