Oops, an error
Loading. Please wait.

La Frontera Inesperada bass

by Riff
115 views 1 this week
no commentswrite comment
1 2 3 4 5
3 more votes to show rating
add to favorites
×
Save as Personal and add changes to this tab that will be seen only by you. Learn more ›
×
You can save this tab as Personal to edit and correct it or add notes. All changes will be seen only by you. Learn more »
launch autoscroll
font size
0
reset
guitar tuner
edit
Autoscroll
slow
fast
+/-
esc
set tempo
stop
                                                                     \
G|---------------------------------------------------                |
D|---------------------------------------------------                |
A|-0-0-0-0-0-0-0-0-0-0-0-0-0-0-0-0-0-0-0-0-0-0-0-0-?-                |
E|---------------------------------------------------                |
                                                                     |
G|----------------------------------------------------------         |Parte
D|----------------------------------------------------------         |  A
A|----------------------------------------------------------         |
E|-3-2-3--3-3-3-3-3-3-3--3---3---3--3-5--5-5-5-5-5-5-5-5-5-5         |
                                                                     |
G|-----------------------------------------------------------------  |
D|-----------------------------------------------------------------  |
A|-----------------------------------------------------------------  |
E|-3-2-3--3-3-3-3-3-3-3--3---3---3--3-5--5-5-5-5-5-5-5-5-5-5-5-5-5-  |
                                                                     /


?La situación es critica, arriba la central?              \
G|---------------------------------------------------     |
D|---------------------------------------------------     |
A|-0-0-0-0-0-0-0-0-0-0-0-0-0-0-0-0-0-0-0-0-0-0-0-0-?-     |
E|---------------------------------------------------     |
                                                          |
?bajo la tierra nueva, hay una nueva accion?              |
G|----------------------------------------------------    |
D|----------------------------------------------------    |
A|----------1---3--3-3-3-0--1--1-1-1-1--3--3-3-3-0-1-0    |
E|-1--1-1-1-------------------------------------------    | Parte
                                                          |   B
?somos de la frontera, tomamos el control?                |
G|----------------------------------------------------    |
D|----------------------------------------------------    |
A|----------1---3--3-3-3-0--1--1-1-1-1--3--3-3-3-3-3-3    |
E|-1--1-1-1-------------------------------------------    |
                                                          |
G|---------------------------------------------------     |
D|---------------------------------------------------     |
A|-5-5-5-5-5-5-5-5-5-5-5-5-5-5-5-5-5-5-5-5-5-5-5-5-?-     |
E|---------------------------------------------------     |
                                                          /

Repite parte B. Despues:

?situaciones fuera de control?                             ?emo-
G|--------------------------------------------------------------
D|--------------------------------------------------------------
A|-0-0-0-0-0-0-0-0-3-3-3-3-5-5---0---0-0-0-0-0-0-0-0-0-0-0-0-0-0
E|--------------------------------------------------------------

ciones?     ?fuera de control?
G|--------------------------------------------------------------
D|--------------------------------------------------------------
A|-0-0-0-0-0-0-0-0-3-3-3-3-5-5---0---0---0---0---0---0---0---0--
E|--------------------------------------------------------------

Repite parte A. Despues:

G|------------------------------------------
D|------------------------------------------
A|-0-0-0-0-------------0-0-0-0--------------
E|------------------------------------------

?la situación es critica, arriba la central?
G|---------------------------------------------------
D|---------------------------------------------------
A|-0-0-0-0-0-0-0-0-0-0-0-0-0-0-0-0-0-0-0-0-0-0-0-0-?-
E|---------------------------------------------------

?bajo la tierra nueva, hay una nueva accion?
G|----------------------------------------------------
D|----------------------------------------------------  Parte
A|----------1---3--3-3-3-0--1--1-1-1-1--3--3-3-3-0-1-0    C
E|-1--1-1-1-------------------------------------------

Repite parte C 2 veces mas. Despues:

?somos de la frontera, donde no llega el sol?
G|----------------------------------------------------
D|----------------------------------------------------
A|----------1---3--3-3-3-0--1--1-1-1-1--3--3-3-3-3-3-3
E|-1--1-1-1-------------------------------------------

G|---------------------------------------------------
D|---------------------------------------------------
A|-5-5-5-5-5-5-5-5-5-5-5-5-5-5-5-5-5-5-5-5-5-5-5-5-?-
E|---------------------------------------------------

Final            (repite hasta el final del tema)
G|--------------------------------------------------------------|
D|--------------------------------------------------------------|
A|-0-0-0-0-0-0-0-0-3-3-3-3-5-5---0---0-0-0-0-0-0-0-0-0-0-0-0-0-0|
E|--------------------------------------------------------------|


La frontera inesperada (Boff-Peyronel)

La situación es critica
arriba en la central
la ciudad alta y rígida
ya es solo puro metal
la superficie espera
super ahogada en alcohol
por nidos de escaleras
nos comeremos el sol

Bajo la tierra nueva
hay una nueva acción
somos de la frontera
tomamos el control

Bajo esta luna eléctrica
pienso en un sol de neón
un mundo subterráneo
somos nosotros hoy
los héroes postergados
desde un mañana mejor
ya no esperamos nada
porque mañana es hoy

Bajo la tierra nueva
hay una nueva acción
somos de la frontera
tomamos el control

Situaciones fuera de control
emociones, fuera
la situación es critica
arria en la central
la ciudad es alta y rígida
ya es solo puro metal

Bajo la luna nueva
hay una nueva acción
somos de la frontera
tomamos el control

Somos de la frontera
que nadie imagino
somos de la frontera
donde no llega el sol

Situaciones fuera de control
emociones fuera de control
superficies fuera de control
bajo tierra fuera de control
la frontera fuera de control
tomaremos fuera de control
postergados fuera de control
subterráneo fuera de control
humanoide fuera de control
casi todo fuera de control
situaciones fuera de control

Bajo tierra fuera de control
la frontera fuera de control
superficies fuera de control

Mientras su musica se siga tocando y escuchando el carpo jamas morira,
vivira eternamente en la memoria de todos.

            
            
Suggest correction
Creating personal tab
Creating personal tab
You can edit any tab online and save it as your Personal.

You can edit, replace or remove any tab part or add personal notes – all changes will be seen only by you.

Personal tabs can be accessed anytime from any device, even offline.
Learn more »
Give kudos to tab author, rate the tab!
1 2 3 4 5
comments
print report bad tab
guest
Wanna post a correction for this tab? Suggest correction