Oops, an error
Loading. Please wait.

Larga Distancia bass

by Riff
91 views 3 this week
no commentswrite comment
1 2 3 4 5
3 more votes to show rating
add to favorites
×
Save as Personal and add changes to this tab that will be seen only by you. Learn more ›
×
You can save this tab as Personal to edit and correct it or add notes. All changes will be seen only by you. Learn more »
launch autoscroll
font size
0
reset
guitar tuner
edit
Autoscroll
slow
fast
+/-
esc
set tempo
stop
     ?Vengo remando?            ?en larga distancia?     \
G|----------------------------------------------------   |
D|----------------------------------------------------   |
A|-----------5-5--5--5-5-5-------------5-5--5--5-5-5--   |
E|-5---5-5-------------------5---5-5------------------   |
                                                         | Parte
       ?nadie me espera llegar, no tengo esperanza?      |   A
G|------------------------------------------------|      |
D|------------------------------------------------|      |
A|------------------------------------------------|      |
E|-3---3-3---3-3---3-3---5-5---5-5---5-5---5-5---5|      |
                                                         /

Repite parte A. Despues

        (3 veces)
?por que siempre debo?     ?de toda esa gente
G|------------------------|------------------------
D|------------------------|------------------------ Parte
A|-----------7-7---7-7----|------------------------   B
E|-7---7-7---------------7|-7---7-7---7-7---7-7---7

Repite parte A, B, A (2 veces), B, A (3 veces). Despues:

Final
G|----------------------------------------------------
D|----------------------------------------------------
A|-----------5-5--5--5-5-5-------------5-5--5--5-5-5--
E|-5---5-5-------------------5---5-5------------------

G|------------------------------------------------
D|------------------------------------------------
A|------------------------------------------------
E|-3---3-3---3-3---3-4--5-------------------------

Larga distancia (Boff-Pappo-Peyronel-Vitico)
Vengo remando, de larga distancia,
nadie me espera llegar, no tengo esperanza;
solo me banco, contra la corriente,
todos intentan zafar, es elocuente.

Por qué siempre debo remar,
contra la corriente;
quizás porque me quiera alejar
de toda esa gente.

La superficie se encuentra tranquila,
miro las plantas crecer desde mi guarida;
sigo remando, me siento seguro,
veo la puesta del Sol, detrás de esos muros.

Nadie me ve pasar, pero es importante,
que sepan que soy el mismo de antes.

Solo me banco, contra la corriente,
todos intentan zafar, es elocuente.

Por qué siempre debo remar,
contra la corriente;
quizás porque me quiera alejar
de toda esa gente.

De toda esa gente...
de toda esa gente...

Mientras su musica se siga tocando y escuchando el carpo jamas morira,
vivira eternamente en la memoria de todos.

            
            
Suggest correction
Creating personal tab
Creating personal tab
You can edit any tab online and save it as your Personal.

You can edit, replace or remove any tab part or add personal notes – all changes will be seen only by you.

Personal tabs can be accessed anytime from any device, even offline.
Learn more »
Give kudos to tab author, rate the tab!
1 2 3 4 5
comments
print report bad tab
guest
Wanna post a correction for this tab? Suggest correction