Oops, an error
Loading. Please wait.

Lily Malone bass

by Riff
137 views 1 this week
no commentswrite comment
1 2 3 4 5
3 more votes to show rating
add to favorites
×
Save as Personal and add changes to this tab that will be seen only by you. Learn more ›
×
You can save this tab as Personal to edit and correct it or add notes. All changes will be seen only by you. Learn more »
launch autoscroll
font size
0
reset
guitar tuner
edit
Autoscroll
slow
fast
+/-
esc
set tempo
stop
?Lily Malone maneja un camion,hay ruido de motor desde su corazon,sale del
bar se pone a andar,y encara la autopista hacia ningun lugar?
  (20 veces)
G|-----------|
D|-----------|
A|-----------|
E|-0--3--0--3|

?Duro alimentada rueda camino al sol,como desesperada buscando una emoción
 Lily Malone,Lily Malone,
                  (3 veces)
G|------------------------------------------------|
D|------------------------------------------------|
A|-------------------------3--3--3--3-------------|
E|-5--5--5--5--1--1--1--1--------------3--3--3--3-|
Lily Malone                                  maneja un camion?
G|------------------------------------------------|
D|------------------------------------------------|
A|-------------------------3--3--3--3-------------|
E|-5--5--5--5--1--1--1--1--------------3----------|

?Lleva su portaligas en la guantera,en caso de romance en la carretera,es
desenfrenada pero suave cual seda,y monta su caballo de 24 ruedas
  (20 veces)
G|-----------|
D|-----------|
A|-----------|
E|-0--3--0--3|

?Turbo-alimentada rueda camino al sol,como desesperada buscando una emocion
 Lily Malone,Lily Malone,
                  (3 veces)
G|------------------------------------------------|
D|------------------------------------------------|
A|-------------------------3--3--3--3-------------|
E|-5--5--5--5--1--1--1--1--------------3--3--3--3-|
Lily Malone                             maneja un camion?
G|------------------------------------------------|---------------------
D|------------------------------------------------|---------------------
A|-------------------------3--3--3--3-------------|---------------------
E|-5--5--5--5--1--1--1--1--------------3----------|-0--0--0--0--0--0-...
(durante el solo)
G|------------------------------------------------
D|------------------------------------------------
A|------------------------------------------------
E|-2--2--2--2--2--2--2--2--2--2--2--2--2--2--2--2-

G|------------------------------------------------
D|------------------------------------------------
A|------------------------------------------------
E|-5--5--5--5--5--5--5--5--5--5--5--5--5--5--5--5-

G|------------------------------------------------
D|------------------------------------------------
A|------------------------------------------------
E|-2--2--2--2--2--2--2--2--2--2--2--2--2--2--2--2-

G|-----------------------------------------------------------------------|
D|-----------------------------------------------------------------------|
A|-----------------------------------------------------------------------|
E|-5--5--5--5--5--5--5--5--5--5--5--5--5--5--5--5--2-2-------------------|

G|-------------------------------------------------------------------------
D|-------------------------------------------------------------------------
A|---------0-1-2--5----------------------------0-1-2--5--------------------
E|-0-1-2-3------------7-6-5-3--5-------0-1-2-3------------7-6-5-3--5--3----

G|-----------------------------------------------------|
D|-----------------------------------------------------|
A|---------0-1-2--5------------------------------------|
E|-0-1-2-3------------7-6-5-3--5-----------------------|

?Lleva su portaligas en la guantera,en caso de romance en la carretera,es
desenfrenada pero suave cual seda,y monta su caballo de 24 ruedas
  (20 veces)
G|-----------|
D|-----------|
A|-----------|
E|-0--3--0--3|

?Turbo-alimentada rueda camino al sol,como desesperada buscando una emocion
 Lily Malone,Lily Malone,
                  (3 veces)
G|------------------------------------------------|
D|------------------------------------------------|
A|-------------------------3--3--3--3-------------|
E|-5--5--5--5--1--1--1--1--------------3--3--3--3-|
Lily Malone                             maneja un camion?
G|------------------------------------------------|---------------------
D|------------------------------------------------|---------------------
A|-------------------------3--3--3--3-------------|---------------------
E|-5--5--5--5--1--1--1--1--------------3----------|-0--0--0--0--0--0-...

Aclaracion:
Los puntos suspensivos (...) los puse para no poner todas las mismas notas
que se repiten hasta el proximo cambio, el resto no creo que necesite de
aclaraciones.

Mientras su musica se siga tocando y escuchando el carpo jamas morira,
vivira eternamente en la memoria de todos...
e-mail: zarathustra4321@

            
            
Suggest correction
Creating personal tab
Creating personal tab
You can edit any tab online and save it as your Personal.

You can edit, replace or remove any tab part or add personal notes – all changes will be seen only by you.

Personal tabs can be accessed anytime from any device, even offline.
Learn more »
Give kudos to tab author, rate the tab!
1 2 3 4 5
comments
print report bad tab
guest
Wanna post a correction for this tab? Suggest correction