Oops, an error
Loading. Please wait.

Lily Malone tab

by Riff
296 views 6 this week
no commentswrite comment
1 2 3 4 5
3 more votes to show rating
add to favorites
×
Save as Personal and add changes to this tab that will be seen only by you. Learn more ›
×
You can save this tab as Personal to edit and correct it or add notes. All changes will be seen only by you. Learn more »
launch autoscroll
font size
0
reset
how to read this tab
guitar tuner
edit
Autoscroll
slow
fast
+/-
esc
set tempo
stop
E / G
Lily Malone maneja un camión
Hay ruido de motores en su corazón
Sale del bar, se pone a andar
Y encara la autopista hacia ningún lugar

A             F              C                             G
  Curva alimentada   rueda camino al sol
  Como desesperada  buscando una emoción
A             F      C             G
  Lily Malone,   Lily Malone
A             F       C  G                              E / G
  Lily malone        maneja un camión.

Lleva su portaligas en la guantera
En caso de romance en la carretera
Es desenfrenada, pero suave cual seda
Y monta su caballo de 24 ruedas

  Curva alimentada   rueda camino al sol
  Como desesperada  buscando una emoción
  Lily Malone,   Lily Malone
  Lily malone        maneja un camión.

SOLO:  
e|----------------------------------------|
B|----------------------------------------|
G|----------------------------------------|    ( x2 )
D|----------------------------------------|
A|-2--7~--6~--5~--4~-0-3~---2--7~--6~--5~-|
E|-0---0-0-0-0-0-0----------0---0-0-0-0---| 
           

  punteo sobre :F#  /  A    F#  /   A  


E|---------------------------------------------------------|
B|---------------------------------------------------------|
G|---------------------------------------------------------|
D|---------------------------------------------------------|
A|--------------5~-5-------2-----------------5~---------7--|
E|-0-3-4-5-5-6-7-----7-5-3-0----0-3-4-5-5-6-7---7-5-3-4-5--|

E|----------------------------------------------------------|
B|----------------------------------------------------------|
G|----------------------------------------------------------|
D|----------------------------------------------------------|
A|--------------5~---------7------------------5~---------7~-|
E|-0-3-4-5-5-6-7---7-5-3-4-5-3---0-3-4-5-5-6-7---7-5-3-4-5~-|   E / G

E / G
Lleva su portaligas en la guantera
En caso de romance en la carretera
Es desenfrenada, pero suave cual seda
Y monta su caballo de 24 ruedas

  Curva alimentada   rueda camino al sol
  Como desesperada  buscando una emoción
  Lily Malone,   Lily Malone
  Lily malone        maneja un camión.

            
            
Suggest correction
Creating personal tab
Creating personal tab
You can edit any tab online and save it as your Personal.

You can edit, replace or remove any tab part or add personal notes – all changes will be seen only by you.

Personal tabs can be accessed anytime from any device, even offline.
Learn more »
Give kudos to tab author, rate the tab!
1 2 3 4 5
comments
print report bad tab
guest
Wanna post a correction for this tab? Suggest correction