Oops, an error
Loading. Please wait.

Macadam Tres, Dos, Uno, Cero bass

by Riff
82 views 1 this week
no commentswrite comment
1 2 3 4 5
3 more votes to show rating
add to favorites
×
Save as Personal and add changes to this tab that will be seen only by you. Learn more ›
×
You can save this tab as Personal to edit and correct it or add notes. All changes will be seen only by you. Learn more »
launch autoscroll
font size
0
reset
guitar tuner
edit
Autoscroll
slow
fast
+/-
esc
set tempo
stop
Esta tablatura esta transcripta de su disco de estudio.

       ?Nadando en una cienaga de macadam??
        x4 (de las vueltas de la guitarra)
G|-----|---------------------------------|
D|-7-7-|---------------------------------|
A|-----|-0-0-0-0-0-0-0-0-0-0-0-0-0-0-0-0-|
E|-----|---------------------------------|

?Ideas a mi mente sacudiran??                     ?oh oh oh?
G|--------------------------------|---------------------------------|
D|--------------------------------|---------------------------------|
A|-5-5-5-5-5-5-5-55-5-5-5-5-5-5-5-|-0-0-0-0-0-0-0-0-0-0-0-0-0-0-0-0-|
E|--------------------------------|---------------------------------|

 ?3,2,1,0??         ?3,2,1,0??        ?3,2,1,0??
G|-------------------------------------------------|
D|-------------------------------------------------|
A|-7-6-5--------------7-6-5------------7-6-5-------|
E|-------8-7-5--5-5-5-------8-7-5-5-5-5------8-7-5-|

?No se lo que quiero pero quiero?? ?Nada es importante todo dejaras??
 x4 (de la vueltas de la guitarra)
G|---------------------------------|--------------------------------|
D|---------------------------------|--------------------------------|
A|-0-0-0-0-0-0-0-0-0-0-0-0-0-0-0-0-|-5-5-5-5-5-5-5-55-5-5-5-5-5-5-5-|
E|---------------------------------|--------------------------------|

                 ?oh oh oh?
G|---------------------------------|
D|---------------------------------|
A|-0-0-0-0-0-0-0-0-0-0-0-0-0-0-0-0-|
E|---------------------------------|

  ?3,2,1,0??         ?3,2,1,0??       ?3,2,1,0??
G|-------------------------------------------------|
D|-------------------------------------------------|
A|-7-6-5--------------7-6-5------------7-6-5-------|
E|-------8-7-5--5-5-5-------8-7-5-5-5-5------8-7-5-|

G|-----------------------------------------------------------
D|-----------------------------------------------------------
A|-4-4-4-42-2-2-2-------------4-4-4-42-2-2-2-0-0-0-0-0-0-0-0-
E|---------------0-0-0-0-0-0-0-------------------------------

G|----------------------------------------------|--------------|
D|----------------------------------------------|--------------|
A|-4-4-4-42-2-2-2-4-4-4-42-2-2-2-4-4-4-42-2-2-2-|--7--7--7--77-|
E|----------------------------------------------|-0-00-00-00---|
2:00
G|------------------------------------------------------------|
D|------------------------------------------------------------|
A|------------------------------------------------------------|
E|-7-6-5-3-0--0-0-0-7-6-5-3-0--0-0-0-7-6-5-3-0--0-0-0-0-0-0-0-|

G|-----------------------------------------------------------------|
D|-----------------------------------------------------------------|
A|-0-0-0-0-0-0-0-0-----------------0-0-0-0-0-0-0-0-----------------|
E|-----------------0-0-0-0-0-0-0-0-----------------0-0-0-0-0-0-0-0-|

?Nadando en una cienaga de macadam???Ideas a mi mente sacudiran?
 x4 (de la vueltas de la guitarra)
G|---------------------------------|-------------------------------|
D|---------------------------------|-------------------------------|
A|-0-0-0-0-0-0-0-0-0-0-0-0-0-0-0-0-|5-5-5-5-5-5-5-55-5-5-5-5-5-5-5-|
E|---------------------------------|-------------------------------|
                 ?oh oh oh?
G|---------------------------------|
D|---------------------------------|
A|-0-0-0-0-0-0-0-0-0-0-0-0-0-0-0-0-|
E|---------------------------------|

  ?3,2,1,0??         ?3,2,1,0??       ?3,2,1,0??
G|-------------------------------------------------|
D|-------------------------------------------------|
A|-7-6-5--------------7-6-5------------7-6-5-------|
E|-------8-7-5--5-5-5-------8-7-5-5-5-5------8-7-5-|

3:04 ?Ya no hay URSS ni USA??
G|-----------------------------------------------------------
D|-----------------------------------------------------------
A|-4-4-4-42-2-2-2-------------4-4-4-42-2-2-2-0-0-0-0-0-0-0-0-
E|---------------0-0-0-0-0-0-0-------------------------------

??ya no miro hacia atrás para ver??                   x8
G|----------------------------------------------|--------------|
D|----------------------------------------------|--------------|
A|-4-4-4-42-2-2-2-4-4-4-42-2-2-2-4-4-4-42-2-2-2-|--7--7--7--77-|
E|----------------------------------------------|-0-00-00-00---|

G|---------------------------------------------------------------|
D|---------------------------------------------------------------|
A|---------------------------------------------------------------|
E|-7-6-5-3-0---7-6-5-3-0---7-6-5-3-0---7-6-5-3-7-6-5-3-7-6-5-3-0-|

               ?oh oh oh?
                 x4
G|---------------------------------|-----|
D|---------------------------------|-----|
A|-0-0-0-0-0-0-0-0-0-0-0-0-0-0-0-0-|--0--|
E|---------------------------------|-----|

Macadam 3?2?1?0? (Riff)

Nadando en una ciénaga de macadam,
no quiero estar tranquilo ni quiero más
ideas a mi mente sacudirán,
ah, ah

Tres, dos, uno, cero
Tres, dos, uno, cero
Tres, dos, uno, cero

No se lo que quiero pero quiero más,
No se lo que vimos pero vimos más,
nada es importante todo dejarás pasar.
Tres, dos, uno, cero
Tres, dos, uno, cero
Tres, dos, uno, cero

Nadando en una ciénaga de macadam,
no quiero estar tranquilo ni quiero más
ideas a mi mente sacudirán,
ah, ah

Tres, dos, uno, cero
Tres, dos, uno, cero
Tres, dos, uno, cero

Ya no hay URSS ni USA
Sólo hay ángeles sucios por acá
Ya no miro hacia atrás
para ver dónde estás
Qué me importa saber,
soy uno más

oh! oh! oh! oh!

Mientras su musica se siga tocando y escuchando el carpo jamas morira,
vivira eternamente en la memoria de todos...
e-mail: zarathustra4321@

            
            
Suggest correction
Creating personal tab
Creating personal tab
You can edit any tab online and save it as your Personal.

You can edit, replace or remove any tab part or add personal notes – all changes will be seen only by you.

Personal tabs can be accessed anytime from any device, even offline.
Learn more »
Give kudos to tab author, rate the tab!
1 2 3 4 5
comments
print report bad tab
guest
Wanna post a correction for this tab? Suggest correction