Oops, an error
Loading. Please wait.

Mal Romance bass

by Riff
118 views 6 this week
no commentswrite comment
1 2 3 4 5
3 more votes to show rating
add to favorites
×
Save as Personal and add changes to this tab that will be seen only by you. Learn more ›
×
You can save this tab as Personal to edit and correct it or add notes. All changes will be seen only by you. Learn more »
launch autoscroll
font size
0
reset
guitar tuner
edit
Autoscroll
slow
fast
+/-
esc
set tempo
stop
          ?Falsas relaciones y bajas intenciones, no?          \
G|--------------------------------------------------           |
D|--------------------------------------------------           |
A|-0--0-0-0-0-0-0-0--0-0-0-0-0-0-0--0-0-0-0-0-0-0-?-           |
E|--------------------------------------------------           |
                                                               |
?podia comenzar mejor, pelicula de amor en technicolor, el?    |
G|------------------------------------------------------------ |
D|------------------------------------------------------------ | Parte
A|-------------------------------2--2-2-2-2-2-2-2--2-2-2-2-2-2 |   A
E|-2--2-2-2-2-2-2-2--2-2-2-2-2-2------------------------------ |
                                                               |
?heroe y su heroína a go-go?                                   |
G|------------------------------                               |
D|------------------------------                               |
A|------------------------------                               |
E|-0--0-0-0-0-0-0-0--0-0-0-0-0-0                               |
                                                               /

Repite parte A. Despues:

                 (2 veces)
?oh oh?    ?oh oh?     ?oh oh?
G|---------------------------------------------|
D|---------------------------------------------| Parte
A|-5--5--5---5-7--7--7---7-0--0--0--0--0--0--0-|   B
E|---------------------------------------------|

                  (2 veces)
?ya cancele esta vida, solo quiero salida de este?
G|------------------------------------------------|
D|------------------------------------------------| Parte
A|-0--0--0--0--0--0--0--0--5--5--5--5-0---0--0--0-|   C
E|------------------------------------------------|

         (6 veces)
?vil?     ?romance?
G|------------------------|---------------
D|------------------------|---------------
A|-5--5--5--5-0---0--0--0-|-0--0-0-0-0-0-0
E|------------------------|---------------

G|------------------------------------------------------------  \
D|------------------------------------------------------------  |
A|-0--0-0-0-0-0-0-0--0-0-0-0-0-0------------------------------  |
E|-------------------------------2--2-2-2-2-2-2-2--2-2-2-2-2-2  | Parte
                                                                |   D
G|------------------------------------------------------------  |
D|------------------------------------------------------------  |
A|-2--2-2-2-2-2-2-2--2-2-2-2-2-2------------------------------  |
E|-------------------------------0--0-0-0-0-0-0-0--0-0-0-0-0-0  /

Repite parte D, B, D, B, C. Despues:

         (8 veces)
?vil?     ?romance?
G|------------------------|------------------------------
D|------------------------|------------------------------
A|-5--5--5--5-0---0--0--0-|-5--5--5--5-0-----------------
E|------------------------|------------------------------

G|-----------------------------------------------------
D|-----------------------------------------------------
A|-0--0-0-0-0-0-0-0--0-0-0-0-0-0-0--0-0-0-0-0-0-0------
E|-----------------------------------------------------

Mal romance (Peyronel-Vitico)

Falsas relaciones y bajas intenciones,
no podía comenzar mejor;
película de amor en technicolor,
el héroe y su heroína a go-go.

Violencia en tu vestido, violencia desvestida,
te creíste la mujer maravilla;
tampoco me arrepiento, ni digo que lo siento,
son romances en la línea amarilla.

Oh-oh, oh-oh, oh-oh;
oh-oh, oh-oh, oh-oh.

Ya cancelé esta vida, sólo quiero salida
de este mal... romance;
no importa lo que digas, tan sólo quiero olvidar
este mal... romance,
vil... romance, mal...romance.

Bye, bye nena, todo esto es una pena,
no se entienden tu emoción y la mía;
ahora me reposo, romance escandaloso,
y el vacio lentamente se enfría.

Crisis amorosa, me diste cada cosa,
que muy pocos se imaginan en vos;
muy mal entretenidos, en juegos retorcidos,
que ganamos y perdimos los dos.

Oh-oh, oh-oh, oh-oh;
oh-oh, oh-oh, oh-oh.

Ya cancelé esta vida, sólo quiero salida
de este mal... romance;
no importa lo que digas, tan sólo quiero olvidar
este mal... romance,
vil... romance, mal...romance,
vil... romance, mal...romance,
vil... romance, mal...romance.

Mientras su musica se siga tocando y escuchando el carpo jamas morira,
vivira eternamente en la memoria de todos.

            
            
Suggest correction
Creating personal tab
Creating personal tab
You can edit any tab online and save it as your Personal.

You can edit, replace or remove any tab part or add personal notes – all changes will be seen only by you.

Personal tabs can be accessed anytime from any device, even offline.
Learn more »
Give kudos to tab author, rate the tab!
1 2 3 4 5
comments
print report bad tab
guest
Wanna post a correction for this tab? Suggest correction