Oops, an error
Loading. Please wait.

Mala Noche bass

by Riff
252 views 1 this week
no commentswrite comment
1 2 3 4 5
3 more votes to show rating
add to favorites
×
Save as Personal and add changes to this tab that will be seen only by you. Learn more ›
×
You can save this tab as Personal to edit and correct it or add notes. All changes will be seen only by you. Learn more »
launch autoscroll
font size
0
reset
guitar tuner
edit
Autoscroll
slow
fast
+/-
esc
set tempo
stop
0:20
               (8 veces)
G|------------------------------------|
D|------------------------------------| Parte
A|------------------------------------|   A
E|-0|0--3-4|5|0--0|0--3-4|5|0---------|

             (3 veces)
 ?mala, mala, mala noche?           ?mala, mala noche?
G|----------------------------------|-----------------------------------
D|----------------------------------|----------------------------------- Parte
A|-3--3-3-3-3-3-3-0|5--5-5-5-5-5-5-4|-3--3-3-3-3-3-3-0|5--5-5-5-5-5-5-5-   B
E|----------------------------------|-----------------------------------

Repite parte A (4 veces), B. Despues:

2:00
                   (2 veces)
G|------------------------------------------------|
D|------------------------------------------------|
A|------------------------------------------------|
E|-2-2-2-2-2-2-2-2-1-1-1-1-1-1-1-1-0-0-0-0-0-0-0-0|

G|------------------------------------------------
D|------------------------------------------------
A|------------------------------------------------
E|-0-0-0-0-0-0-0-0-0-0-0-0-0-0-0-0-0-0-0-0-0-0-0-0

      (2 veces)
G|------------------|--------------------------------
D|------------------|-------------------------------- Parte
A|------------------|--------------------------------   C
E|-0-0-0-0-1-1-3-3-5|-0-0-0-0-1-1-3-3-6-6-6-6-5-5-5-5

Repite parte C (3 veces). Despues:

G|--------------------------------
D|--------------------------------
A|--------------------------------
E|-0-0-0-0-0-0-0-0-0-0-0-0-0-0-0-0

Repite parte A (4 veces), B y A (4 veces).

x|x : tocar las dos notas consecutivamente rápido por Ej. 0|5


Mala noche (Boff-Pappo-Peyronel-Vitico)

Llega la mañana como vengativa,
y él que no recuerda dónde mierda iba;
lleva su chaqueta de eslabón perdido,
como la careta de un dios caído.

Las huellas que ha dejado son muy, muy buenas,
no quizo que la cana tenga algún problema;
pensaba figurar en la primera plana,
se había equivocado como héroe de mañana.

Mala, mala, mala, mala noche,
mala, mala noche!;
mala, mala, mala, mala noche,
mala, mala noche!.

Le juro marihuana no he fumado policía,
decía algo nervioso mientras se caía;
y el juez le dice: "chico, ¿qué coño hiciste?,
ahora por boludo, te sentencio, fuiste!".

Mala, mala, mala, mala noche,
mala, mala noche!;
mala, mala, mala, mala noche,
mala, mala noche!.

Quizás sea algo bueno que no llegue lejos,
y apuesto tiene chances de llegar a viejo;
víctima de sueño de televisión,
otro rehén voluntario de la confusión.

Mala, mala, mala, mala noche,
mala, mala noche!;
mala, mala, mala, mala noche,
mala, mala noche!.

Mientras su musica se siga tocando y escuchando el carpo jamas morira,
vivira eternamente en la memoria de todos.

            
            
Suggest correction
Creating personal tab
Creating personal tab
You can edit any tab online and save it as your Personal.

You can edit, replace or remove any tab part or add personal notes – all changes will be seen only by you.

Personal tabs can be accessed anytime from any device, even offline.
Learn more »
Give kudos to tab author, rate the tab!
1 2 3 4 5
comments
print report bad tab
guest
Wanna post a correction for this tab? Suggest correction