Oops, an error
Loading. Please wait.

Sordidez bass

by Riff
34 views 1 this week
no commentswrite comment
1 2 3 4 5
3 more votes to show rating
add to favorites
×
Save as Personal and add changes to this tab that will be seen only by you. Learn more ›
×
You can save this tab as Personal to edit and correct it or add notes. All changes will be seen only by you. Learn more »
launch autoscroll
font size
0
reset
guitar tuner
edit
Autoscroll
slow
fast
+/-
esc
set tempo
stop
G|-----------------------------------------------------------------
D|-----------------------------------------------------------------
A|-5-5-5-5-5-5-5-5-5-5-5-5-5-5-5-5-5-5-5-5-5-5-5-5-5-5-5-5-5-5-5-5-
E|-----------------------------------------------------------------

G|-----------------------------------------------------------------
D|-----------------------------------------------------------------
A|-7-7-7-7-7-7-7-7-7-7-7-7-7-7-7-7---7-7-7-7-7-7-7-7-7-7-7-7-7-7-7-
E|---------------------------------0-------------------------------
?Llega el amanecer?  ?usted quien es?
G|-----------------------------------------------------------------
D|-----------------------------------------------------------------
A|---------------------------------7-7-7-7-7-7-7-7-7-7-7-7-7-7-7-7-
E|-7-7-7-7-7-7-7-7-7-7-7-7-7-7-7-7---------------------------------
?Que es lo que hace?    ?usted de mi?                         Vayase?
G|-----------------------------------------------------------------
D|-----------------------------------------------------------------
A|---------------------------------7-7-7-7-7-7-7-7-7-7-7-7-7-7-7-7-
E|-7-7-7-7-7-7-7-7-7-7-7-7-7-7-7-7---------------------------------
                  ?Usted es un? ?sordidez?     ?De todo aquello? ?una vez
G|--------------------------------------------------------------------
D|--------------------------------------------------------------------
A|-----------------5-5-5-5--------------------------5-5-5-5-----------
E|-5-5-5-5-5-5-5-5---------5-5-5-335--5-5-5-5-5-5-5---------5-5-5-335-
                ?Muchas cosas? mejor que?   No vuelva?     ?y me deje ser
G|----------------------------------------------------------------
D|----------------------------------------------------------------
A|---------------5-5-5-5--------------------------5-5-5-5---------
E|-5-5-5-5-5-5-5---------5-5-5-335--5-5-5-5-5-5-5---------5-5-5-5-

G|--------------
D|--------------
A|---------5----
E|-0----------5-

G|-----------------------------------------------------------------
D|-----------------------------------------------------------------
A|-7-7-7-7-7-7-7-7-7-7-7-7-7-7-7-7---7-7-7-7-7-7-7-7-7-7-7-7-7-7-7-
E|---------------------------------0-------------------------------
?Muy dentro de mi ser?  ?no quiero ver?
G|-----------------------------------------------------------------
D|-----------------------------------------------------------------
A|---------------------------------7-7-7-7-7-7-7-7-7-7-7-7-7-7-7-7-
E|-7-7-7-7-7-7-7-7-7-7-7-7-7-7-7-7---------------------------------
?Tal vez por que ya?    ?podre entender?                    Vayase?
G|-----------------------------------------------------------------
D|-----------------------------------------------------------------
A|---------------------------------7-7-7-7-7-7-7-7-7-7-7-7-7-7-7-7-
E|-7-7-7-7-7-7-7-7-7-7-7-7-7-7-7-7---------------------------------
                  ?Usted es un? ?sordidez?     ?De todo aquello? ?una vez?
G|--------------------------------------------------------------------
D|--------------------------------------------------------------------
A|-----------------5-5-5-5--------------------------5-5-5-5-----------
E|-5-5-5-5-5-5-5-5---------5-5-5-335--5-5-5-5-5-5-5---------5-5-5-335-
                ?Muchas cosas? mejor que?  ?No vuelva?     ?y me deje ser?
G|----------------------------------------------------------------
D|----------------------------------------------------------------
A|---------------5-5-5-5--------------------------5-5-5-5---------
E|-5-5-5-5-5-5-5---------5-5-5-335--5-5-5-5-5-5-5---------5-5-5-5-

G|------------------------------
D|------------------------------
A|---------5--------------------
E|-0----------5----0------------
2:05
G|-----------------------------------------------------------------
D|-----------------------------------------------------------------
A|-5-5-5-5-5-5-5-5-5-5-5-5-5-5-5-5-5-5-5-5-5-5-5-5-5-5-5-5-5-5-5-5-
E|-----------------------------------------------------------------

G|------------------------------
D|------------------------------
A|------------------------------
E|-0---------------0------------

G|-----------------------------------------------------------------
D|-----------------------------------------------------------------
A|-5-5-5-5-5-5-5-5-5-5-5-5-5-5-5-5-5-5-5-5-5-5-5-5-5-5-5-5-5-5-5-5-
E|-----------------------------------------------------------------

G|------------------------------
D|------------------------------
A|------------------------------
E|-0---------------0------------
2:37 (empieza el solo de guitarra)
G|-----------------------------------------------------------------
D|-----------------------------------------------------------------
A|-7-7-7-7-5-5-5-5-----------------7-7-7-7-5-5-5-5-----------------
E|-----------------5-5-5-5-7-7-7-7-----------------5-5-5-5-7-7-7-7-
2:48
G|-----------------------------------------------------------------
D|-----------------------------------------------------------------
A|-----------------------------------------------------------------
E|-7-7-7-7-7-7-7-7-7-7-7-7-7-7-7-7-7-7-7-7-7-7-7-7-7-7-7-7-7-7-7-7-

G|------------------------------------------------------------------------
D|------------------------------------------------------------------------
A|----5-5-------------5-5-------------5-5-------------5-5-----------------
E|-7-7-----7-7-7-7-7-7-----7-7-7-7-7-7-----7-7-7-7-7-7-----7-7-7-7-7-7-7-7

G|-----------------------------------------------------------------
D|-----------------------------------------------------------------
A|-5-5-5-5-5-5-5-5-5-5-5-5-5-5-5-5-5-5-5-5-5-5-5-5-5-5-5-5-5-5-5-5-
E|-----------------------------------------------------------------

G|-----------------------------------------------------------------
D|-----------------------------------------------------------------
A|-7-7-7-7-7-7-7-7-7-7-7-7-7-7-7-7---7-7-7-7-7-7-7-7-7-7-7-7-7-7-7-
E|---------------------------------0-------------------------------
?Llega el amanecer?  ?usted quien es?
G|-----------------------------------------------------------------
D|-----------------------------------------------------------------
A|---------------------------------7-7-7-7-7-7-7-7-7-7-7-7-7-7-7-7-
E|-7-7-7-7-7-7-7-7-7-7-7-7-7-7-7-7---------------------------------
?Que es lo que hace?    ?usted de mi?                         Vayase?
G|-----------------------------------------------------------------
D|-----------------------------------------------------------------
A|---------------------------------7-7-7-7-7-7-7-7-7-7-7-7-7-7-7-7-
E|-7-7-7-7-7-7-7-7-7-7-7-7-7-7-7-7---------------------------------
                  ?Usted es un? ?sordidez?     ?De todo aquello? ?una vez?
G|--------------------------------------------------------------------
D|--------------------------------------------------------------------
A|-----------------5-5-5-5--------------------------5-5-5-5-----------
E|-5-5-5-5-5-5-5-5---------5-5-5-335--5-5-5-5-5-5-5---------5-5-5-335-
                ?Muchas cosas? mejor que?  ?No vuelva?         ?Vayase?
G|--------------------------------------------------------------------
D|--------------------------------------------------------------------
A|---------------5-5-5-5--------------------------5-5-5-5-------------
E|-5-5-5-5-5-5-5---------5-5-5-335--5-5-5-5-5-5-5---------5-5-5-5-335-
                  ?Usted es un? ?sordidez?     ?De todo aquello? ?una vez?
G|--------------------------------------------------------------------
D|--------------------------------------------------------------------
A|-----------------5-5-5-5--------------------------5-5-5-5-----------
E|-5-5-5-5-5-5-5-5---------5-5-5-335--5-5-5-5-5-5-5---------5-5-5-335-
                ?Muchas cosas? mejor que?  ?No vuelva?     ?y me deje ser?
G|----------------------------------------------------------------
D|----------------------------------------------------------------
A|---------------5-5-5-5--------------------------5-5-5-5---------
E|-5-5-5-5-5-5-5---------5-5-5-335--5-5-5-5-5-5-5---------5-5-5-5-
      (4 veces)    (11 veces)  Final
G|-----------------|--------|---------------------------------------------
D|-----------------|--------|---------------------------------------------
A|---------5-------|--5-----|-------------7/19------------------------7/d-
E|-0----------5----|-----5--|--0------------------------------------------

 /: slide up
/d: slide down

Sordidez (Vitico)

Llega el amanecer,
y me pregunto ¿Usted quién es?
¿Qué es lo que hace aquí?
¿Qué es lo que quiere usted de mí?

Vayasé, usted es un fantasma que no quiero ver;
sordidez, de todo aquello que pasó una vez;
parte de, muchas cosas que no pueden ser;
mejor que, no vuelva nunca y me deje ser.

Muy dentro de mi ser,
hay cosas que no quiero ver,
tal vez porque ya sé,
que nunca las voy a entender.

Vayasé, usted es un fantasma que no quiero ver;
sordidez, de todo aquello que pasó una vez;
parte de, muchas cosas que no pueden ser;
mejor que, no vuelva nunca y me deje ser

Mientras su musica se siga tocando y escuchando el carpo jamas morira,
vivira eternamente en la memoria de todos...
e-mail: zarathustra4321@

            
            
Suggest correction
Creating personal tab
Creating personal tab
You can edit any tab online and save it as your Personal.

You can edit, replace or remove any tab part or add personal notes – all changes will be seen only by you.

Personal tabs can be accessed anytime from any device, even offline.
Learn more »
Give kudos to tab author, rate the tab!
1 2 3 4 5
comments
print report bad tab
guest
Wanna post a correction for this tab? Suggest correction