Oops, an error
Loading. Please wait.

Sube A Mi Voiture bass

by Riff
313 views 1 this week
no commentswrite comment
1 2 3 4 5
3 more votes to show rating
add to favorites
×
Save as Personal and add changes to this tab that will be seen only by you. Learn more ›
×
You can save this tab as Personal to edit and correct it or add notes. All changes will be seen only by you. Learn more »
launch autoscroll
font size
0
reset
guitar tuner
edit
Autoscroll
slow
fast
+/-
esc
set tempo
stop
G|----------------------------------------   \
D|----------------------------------------   |
A|-5--5-5--5-5--5-5--5-5--5-5--5-5--5-5--5   |
E|----------------------------------------   |
                                             |
G|----------------------------------------   |
D|----------------------------------------   |
A|-5--5-5--5-5--5-5--5-5--5-5--5-5--5-5--5   |
E|----------------------------------------   |
                                             |
G|----------------------------------------   |
D|----------------------------------------   | Parte
A|----------------------------------------   |   A
E|-3--3-3--3-3--3-3--3-3--3-3--3-3--3-3--3   |
                                             |
G|----------------------------------------   |
D|----------------------------------------   |
A|-5--5-5--5-5--5-5--5-5--5-5--5-5--5-5--5   |
E|----------------------------------------   |
                                             |
G|----------------------------------------   |
D|----------------------------------------   |
A|----------------------------------------   |
E|-5--5-5--5-5--5-5--5-3--3-3--3-3--3-3--3   /

G|----------------------------------------
D|----------------------------------------
A|-5--5-5--5-5--5-5--5-5--5-5--5-5--5-5--5
E|----------------------------------------

Repite todo lo de arriba 5 veces, parte A. Despues:

Final
G|----------------------------------------------------------------
D|----------------------------------------------------------------
A|-5--5-0--1-2------------------3--4-5-------------6--5-----------
E|--------------3--1-0--3--4-5------------------------------------

Sube a mi voiture (Pappo)

Jenny es la mujer que amo
y yo no comprendo porque
la pasan a buscar
y ella sin mirar
sube a cualquier Mercedes Benz
sube a mi Voiture
sube a mi Voiture
sube a mi Voiture
y olvida los Mercedes Benz

Desde mi punto de vista
Jenny lo que hace esta mal
ella no mira a quien
se cree que esta bien
lo hace sin saber porque
sube a mi Voiture
sube a mi Voiture
sube a mi Voiture
y olvida los Mercedes Benz.

Mientras su musica se siga tocando y escuchando el carpo jamas morira,
vivira eternamente en la memoria de todos.

            
            
Suggest correction
Creating personal tab
Creating personal tab
You can edit any tab online and save it as your Personal.

You can edit, replace or remove any tab part or add personal notes – all changes will be seen only by you.

Personal tabs can be accessed anytime from any device, even offline.
Learn more »
Give kudos to tab author, rate the tab!
1 2 3 4 5
comments
print report bad tab
guest
Wanna post a correction for this tab? Suggest correction