Oops, an error
Loading. Please wait.

Invasion tab

version 1
version 1

Whole song

Interactive

919 views 1 this week
no commentswrite comment
1 2 3 4 5
3 more votes to show rating
add to favorites
×
Save as Personal and add changes to this tab that will be seen only by you. Learn more ›
×
You can save this tab as Personal to edit and correct it or add notes. All changes will be seen only by you. Learn more »
launch autoscroll
font size
0
reset
how to read this tab
guitar tuner
edit
Autoscroll
slow
fast
+/-
esc
set tempo
stop
Difficulty
intermediate
If you want to know what this song sounds like then go to righteous jams unofficial 
that I found.
The URL is
http://www.myspace.com/righteousjamshardcore

E|-----------------------------------------------------------------------|
B|-----------------------------------------------------------------------|
G|-----------------------------------------------------------------------|
D|---5--6---7---7-7--7---7-7---8--6---5--4--4-4--------------------------|
A|---5--6---7---7-7--7---7-7---8--6---5--4--4-4--------------------------|
E|-----------------------------------------------------------------------|

repeat 4x

If this isn't the right rythem then just use common sence and make it the right rythm

long pause

Then hit

E|-----------------------------------------------------------------------|
B|-----------------------------------------------------------------------|
G|-----------------------------------------------------------------------|
D|-----4-----------------------------------------------------------------|
A|-----4-----------------------------------------------------------------|
E|-----------------------------------------------------------------------|

Let it ring


Before the next verse
You should play something like this and you should play it pretty fast fast
E|-----------------------------------------------------------------------|
B|-----------------------------------------------------------------------|
G|-----------------------------------------------------------------------|
D|-------7-5-4--5-4--7---------------------------------------------------|
A|-------7-5-4--5-4--7---------------------------------------------------|
E|-----------------------------------------------------------------------|


Now for the verse

But this time it's a bit more different then the intro

E|-----------------------------------------------------------------------|
B|-----------------------------------------------------------------------|
G|--------------7-7--7---7-7---------------------------------------------|
D|---5--6---7---7-7--7---7-7---8--6---5--4--4-4--------------------------|
A|---5--6---7---7-7--7---7-7---8--6---5--4--4-4--------------------------|
E|-----------------------------------------------------------------------|

            
            
Suggest correction
Creating personal tab
Creating personal tab
You can edit any tab online and save it as your Personal.

You can edit, replace or remove any tab part or add personal notes – all changes will be seen only by you.

Personal tabs can be accessed anytime from any device, even offline.
Learn more »
Give kudos to tab author, rate the tab!
1 2 3 4 5
comments
print report bad tab
guest
Wanna post a correction for this tab? Suggest correction