Oops, an error
Loading. Please wait.

Disturbia bass

version 3
version 3

Whole song

Interactive

by Rihanna
5,552 views 6 this week
1 commentread comment
1 2 3 4 5
3 more votes to show rating
add to favorites
×
Save as Personal and add changes to this tab that will be seen only by you. Learn more ›
×
You can save this tab as Personal to edit and correct it or add notes. All changes will be seen only by you. Learn more »
launch autoscroll
font size
0
reset
guitar tuner
edit
Autoscroll
slow
fast
+/-
esc
set tempo
stop
disturbia-rihanna

G|-----------------------------------------------------------|
D|-----------------------------------------------------------|
A|----0-0-3-3---------0-0-3-3---------0-0-3-3----------------|
E|------------3-3-1-1---------3-3-1-1---------3-3-1-1--------|

G|-----------------------------------------------------------|
D|-----------------------------------------------------------|
A|----0-----3------------------------------------------------|
E|----------------3-----1------------------------------------|

G|-----------------------------------------------------------|
D|-----------------------------------------------------------|
A|----0-0-3-3---------0-0-3-3---------0-0-3-3----------------|
E|------------3-3-1-1---------3-3-1-1---------3-3-1-1--------|

G|-----------------------------------------------------------|
D|-----------------------------------------------------------|
A|----0-----3------------------------------------------------|
E|----------------3-----1------------------------------------|


G|-----------------------------------------------------------|
D|-----------------------------------------------------------|
A|----2-2-5-5--------2-2-5-5--------2-2-5-5------------------|
E|------------5-5-3-3--------5-5-3-3--------5-5-3-3----------|


G|-----------------------------------------------------------|
D|-----------------------------------------------------------|
A|----0-----3------------------------------------------------|
E|----------------3-----1------------------------------------|

G|-----------------------------------------------------------|
D|-----------------------------------------------------------|
A|----2-2-5-5--------2-2-5-5--------2-2-5-5------------------|
E|------------5-5-3-3--------5-5-3-3--------5-5-3-3----------|

G|-----------------------------------------------------------|
D|-----------------------------------------------------------|
A|----0-0-3-3---------0-0-3-3---------0-0-3-3----------------|
E|------------3-3-1-1---------3-3-1-1---------3-3-1-1--------|

G|-----------------------------------------------------------|
D|-----------------------------------------------------------|
A|----0-----3------------------------------------------------|
E|----------------3-----1------------------------------------|

G|-----------------------------------------------------------|
D|-----------------------------------------------------------|
A|----0-0-3-3---------0-0-3-3---------0-0-3-3----------------|
E|------------3-3-1-1---------3-3-1-1---------3-3-1-1--------|

G|-----------------------------------------------------------|
D|-----------------------------------------------------------|
A|----0-----3------------------------------------------------|
E|----------------3-----1------------------------------------|

D|-----------------------------------------------------------|
A|----2-2-5-5--------2-2-5-5--------2-2-5-5------------------|
E|------------5-5-3-3--------5-5-3-3--------5-5-3-3----------|


G|-----------------------------------------------------------|
D|-----------------------------------------------------------|
A|----0-----3------------------------------------------------|
E|----------------3-----1------------------------------------|

G|-----------------------------------------------------------|
D|-----------------------------------------------------------|
A|----2-2-5-5--------2-2-5-5--------2-2-5-5------------------|
E|------------5-5-3-3--------5-5-3-3--------5-5-3-3----------|

G|-----------------------------------------------------------|
D|-----------------------------------------------------------|
A|----0-0-3-3---------0-0-3-3---------0-0-3-3----------------|
E|------------3-3-1-1---------3-3-1-1---------3-3-1-1--------|

G|-----------------------------------------------------------|
D|-----------------------------------------------------------|
A|-----------------------------------------------------------|
E|----0-0-0-0-0-0-0-0-2-3-3-3-3-5-5-5-5-3-3-3-3-3-5-6-8-8-8-8|

D|-----------------------------------------------------------|
A|----2-2-5-5--------2-2-5-5--------2-2-5-5------------------|
E|------------5-5-3-3--------5-5-3-3--------5-5-3-3----------|

G|-----------------------------------------------------------|
D|-----------------------------------------------------------|
A|----0-----3------------------------------------------------|
E|----------------3-----1------------------------------------|

G|-----------------------------------------------------------|
D|-----------------------------------------------------------|
A|----2-2-5-5--------2-2-5-5--------2-2-5-5------------------|
E|------------5-5-3-3--------5-5-3-3--------5-5-3-3----------|

that's it i hope it works :)

            
            
Suggest correction
Creating personal tab
Creating personal tab
You can edit any tab online and save it as your Personal.

You can edit, replace or remove any tab part or add personal notes – all changes will be seen only by you.

Personal tabs can be accessed anytime from any device, even offline.
Learn more »
Give kudos to tab author, rate the tab!
1 2 3 4 5
comments
print report bad tab
1 comment total.
0 reply
scarecrow147 31 Oct 27, 2008 06:21 PM

i dont hear the A-0-3---- progression
E-----3-1
but other than that it sounds awesome

guest
Wanna post a correction for this tab? Suggest correction