Oops, an error
Loading. Please wait.

Only Girl In The World bass

version 1
version 1

Whole song

Interactive

by Rihanna
8,028 views 3 this week
no commentswrite comment
1 2 3 4 5
1 last vote to show rating
add to favorites
×
Save as Personal and add changes to this tab that will be seen only by you. Learn more ›
×
You can save this tab as Personal to edit and correct it or add notes. All changes will be seen only by you. Learn more »
launch autoscroll
font size
0
reset
guitar tuner
edit
Autoscroll
slow
fast
+/-
esc
set tempo
stop
Author
Difficulty
Artist: Rihanna
Song: Only Girl (in the world)
Tabber: Sleepy_Head

This tabs fairly simple, and has a few fills, but just listen to the song and 
they'll be easy to get

Intro
----------

G|---------|
D|---------|
A|---------|
E|-2-2-2-2-| x8

Verse
----------

G|-----------------|
D|-----------------|
A|-5-5-4-4---------|
E|---------2-2-2-2-| x  (there are a few fills here, but i haven't worked them out)


Chorus
----------

Part 1

G|----------------------------|
D|----------------------------|
A|------------------------5-5-|
E|-3~-2-3-2-3-5---7-5-7-5-----| x2

Part 2

G|-------------------------------------|
D|-------------------------------------|
A|--------------------------------5555-|
E|-3333333333322335555777777777777-----|

then Chorus Ending
 
G|--------------------------------|
D|--------------------------------|
A|--------------------------------|
E|-333333333333333000002233333333-|

Main Chorus Part

G|------------------------------------|
D|------------------------------------|
A|-------------------------------5-5--|
E|-3-3-3-3-3-3-3-5-7-7-7-7-7-7-7------| 
   . . . . . . .   . . . . . . . . .

(i like to add a F# at the end of the first repeat, as it is a nice joining note) 

then Chorus Ending

Repeat Verse & Part 1 of Chorus & Main Chorus

G|-----------------|
D|-----------------|
A|-5-5-------------|
E|-----5-5-7-7-7-7-| x8

Repat Main Chorus til finish

have fun

PEACE :)

            
            
Suggest correction
Creating personal tab
Creating personal tab
You can edit any tab online and save it as your Personal.

You can edit, replace or remove any tab part or add personal notes – all changes will be seen only by you.

Personal tabs can be accessed anytime from any device, even offline.
Learn more »
Give kudos to tab author, rate the tab!
1 2 3 4 5
comments
print report bad tab
guest
You may want to rate the tab now too:
select rating
Wanna post a correction for this tab? Suggest correction