Oops, an error
Loading. Please wait.

Photographs tab

by Rihanna feat. Will.i.am
7,835 views 3 this week
2 commentsread comments
1 2 3 4 5
1 last vote to show rating
add to favorites
×
Save as Personal and add changes to this tab that will be seen only by you. Learn more ›
×
You can save this tab as Personal to edit and correct it or add notes. All changes will be seen only by you. Learn more »
launch autoscroll
font size
0
reset
how to read this tab
guitar tuner
edit
Autoscroll
slow
fast
+/-
esc
set tempo
stop
This is a tab of Rhianna's Photographs song. You can use a capo on the 3rd fret to make 
easier to play.
The four chords : Em, B, G, Asus2 can be played in the whole song.

Intro :


E||-----------7-----------|-----------7-----------|-----------7-----------|
B||----------------8------|----------------7------|----------------8------|
G||--------9--------------|-----------------------|-----------------------|
D||-----9-----------------|--------9--------------|--------5--------------|
A||--7--------------------|-----9-----------------|-----5-----------------|
E||-----------------------|--7--------------------|--3--------------------|


------------7------------||
--------10-------10------||
-----9-------------------||
--7----------------------||
-------------------------||
-------------------------||

            
            
Suggest correction
Creating personal tab
Creating personal tab
You can edit any tab online and save it as your Personal.

You can edit, replace or remove any tab part or add personal notes – all changes will be seen only by you.

Personal tabs can be accessed anytime from any device, even offline.
Learn more »
Give kudos to tab author, rate the tab!
1 2 3 4 5
comments
print report bad tab
2 comments total.
0 reply
nwaskahat1984 44 May 22, 2014 12:27 PM

----7-
-----8
------
---5--
--5---
-3---- Raplace measure with

---------7---
-----------8-
-------7-----
-----9-------
--10---------
------------- this is a high variation of the g chord

other then that, awesome tab.

0 reply
nwaskahat1984 44 May 22, 2014 12:28 PM

----7-
-----8
------
---5--
--5---
-3---- Raplace measure with

---------7---
-----------8-
-------7-----
-----9-------
--10---------
------------- this is a high variation of the g chord

other then that, awesome tab.

guest
You may want to rate the tab now too:
select rating
Wanna post a correction for this tab? Suggest correction